tablaturas, partituras y acordes para guitarra
Busca por banda/artista:
 
y/o título de la canción:
A B C D E F G H I J K L M N O P Q R S T U V W X Y Z 0 1 2 3 4 5 6 7 8 9 / Top 100 tabs
Categorías
Usuarios
usuario:
Darse de alta
password:
Artistas más visitados
Publicidad
TOP acordes y tablaturas de Stone Temple Pilots


Sour Girl
de Stone Temple Pilots
Puntúa este acorde/tab:      
(0.4/5)
Reportar este acorde/tab
  Añadir a tus favoritos
  Imprimir
Song: Sour Girl
Artist: Stone Temple Pilots
Album: No.4
Submitted and tabbed by Brandon Williams 
e-mail: Bwillia1074@cs.com

These are the basic parts to the song "Sour Girl" by STP.  This tab is 100% corr

Intro:
|-------------------------------------------------------------------------------
|-------------------------------------------------------------------------------
|---------5------------5-----------------2--2--2--4--4--4-------------5---------
|-5-----5------------5--------------5----3--3--3--5--5--5-----------5-----------
|-5-7-8-----7----5-6-----5--------5------3--3--3--5--5--5-35-5-7-8-----7----5-6
|--------------8------------7-7-8-----7/-1--1--1--3--3--3------------------8----

------------------|
------------------|
-2--2--2--4--4--4-|
-3--3--3--5--5--5-|
-3--3--3--5--5--5-|
-1--1--1--3--3--3-|

Verse:
|----5--5-----5----------------|
|----3--6-----6--1--1--3-------|
|----0--5-----5--2--2--4--5--4-|
|----4--0-----0--3--3--5--5--5-|
|----------------3--3--5--5--5-|
|-5-----6--6-----1--1--3-----3-|

Chorus:                                                       
|-----0--0--0--0---5---5--5--5--5--5--5--0--0--0------------3--3--3--3--------3-
|-----6--6--6--6---6---6--6--6--6--6--6--1--1--1------------3--3--3--3--------3-
|-----5--5--5--5---5---5--5--5--5--5--5--0--0--0-0----0--0--0--0--0--0--------0-
|-----0--0--0--0---5---5--5--5--5--5--5--2--2--2-0h2--0--0--0--0--0--0--------0-
|------------------0---0--0--0--0--0--0--3--3--3-3------------------------------
|-6---6--6--6--6--------------------------------------------3--3--3--3--2^(3)-3-

-------1----1-0-----------------------3----7-----10-----------------------------
----3-------------1---1--1--1--1--1---0----0-----0------------------------------
----3-------------2---2--2--2--2--2---0----0-----0------------------------------
----3-------------3---3--3--3--3--3---0----0-----0------------------------------
-0--1----1--------3---3--3--3--3--3---------------------------------------------
------------------1---1--1--1--1--1-(-37--710--10-)-10--10--10--10--10--10--10

Notes in parenthesis are not played on the recorded version but are played live.
		   
AcordesyTabs.com © 2008 Acordes y Tablaturas para guitarra. Tabs and Chords for guitar. Aviso Legal - Contacto
El uso de este sitio está sujeto a la aceptación de los términos y condiciones (30 usuarios online)