tablaturas, partituras y acordes para guitarra
Busca por banda/artista:
 
y/o título de la canción:
A B C D E F G H I J K L M N O P Q R S T U V W X Y Z 0 1 2 3 4 5 6 7 8 9 / Top 100 tabs
Categorías
Usuarios
usuario:
Darse de alta
password:
Artistas más visitados
Publicidad
TOP acordes y tablaturas de Silvio Rodriguez


Quien Fuera
de Silvio Rodriguez
Puntúa este acorde/tab:      
(0.3/5)
Reportar este acorde/tab
  Añadir a tus favoritos
  Imprimir
+ Tablaturas de la Vanguardia del Rock          +
+ http://www.geocities.com/BourbonStreet/6195/  +
+++++++++++++++++++++++++++++++++++++++++++++++++

Introducción:

     G                     Em
E-|-------------------------------------------------------------
B-|---------3--------3------------------------------------------
G-|-------0----0---0---0-------0--------0---2-0---0-------------
D-|-----4--------4-----------4---2--024---4-----4---(-2-0-)-----
A-|-------------------------------------------------------------
E-|--3---------------------0------------------------------------



     C                     Am7
E-|-------------------------------------------------------------
B-|---------3--------3-----------3---------3--------------------
G-|-------0----0---0---0-------0-----0---0---0------------------
D-|-----4--------4-----------4---------4------------------------
A-|--3---------------------0------------------------------------
E-|-------------------------------------------------------------





    Em9                               C9/5-        Dsus4         G
E-|---------------------0-----2--------------2-0---3-2-020---------------
------
B-|-------3-------3---3-----3---3----------3-----3---------3---0---------
------
G-|-----0---0---0---0-----0-------2------0-------------------2---0-------
------
D-|---4-------4------------------------------------0---------------------
------
A-|-2---------------------------------3----------------------------------
------
E-|--------------------------------------------------------------3-------
------



        La parte del arpegio que toca en medio de la cancion que es algo
diferente al resto puede ser algo asi:

    G                                Em                             C
E-|---------------------------------------------------------------------
B-|---------3-1-0---3-1-0--------------------------------1-0------------
G-|---0---0-------2-------2---0---0------------0-2-0---0-----2-0--------
D-|-----4-------------------0---4------2-0-2-4-------4-----------2-0----
A-|------------------------------------------------------------------3--
E-|-3--------------------------------0----------------------------------


        La variacion en Em que hace antes de cantar la estrofa de
'Estoy buscando una escafandra..'

    Em                                G
E-|-----------------------------------------------------
B-|-----------------------------------------------------
G-|---------0-2-0---0-----0-------0---------------------
D-|----4----------4---2-0---0---0-----------------------
A-|---------------------------2-----0-------------------
E-|--0--------------------------------3-----------------

       Y la parte cantada:

G                    Em
 Estoy buscando una palabra

G                       Em
 en el umbral de tu misterio

C                    [G]Am7  
 quien fuera Ali Baba

                              Em9
 quien fuera el mitico Simbad

                               C
 quien fuera un poderoso sortilegio

 D/F#
 quien fuera encantador


Estoy buscando una escafandra
al pie del mar de los delirios
quien fuera Jacques Cousteau
quien fuera Nemo el capitan
quien fuera el batiscafo de tu abismo
quien fuera explorador

G               G(Rasgueo fuerte)-el resto igual
Corazon, corazon oscuro
corazon, corazon con muros
corazon, que se esconde
corazon, que esta donde
corazon, corazon en fuga
herido de dudas y amor.

G                   Em
 Estoy buscando melodia

G                    Em
 para saber como llamarte

C            F#m7/D#
 quien fuera ruisenor

D9           Adim       Em7
 quien fuera Lennon y Mcartney

              D              C       C/B
 Sindo Garay, Violeta, Chico Buarque

       Am       D/F#  G
 quien fuera tu trovador

     Canciones



Acordes complejos

Adim........X6757X 
Am7.........X02010 
C...........X32010 
C9/5-.......X3X032 
D/F#........2X0232 
Dsus4.......XX0233 
D9..........X54530 
Em..........022000 
Em9.........X24030 
F#m7/D#.....X42222 
Em7.........X79877 
G...........320001
		   
AcordesyTabs.com © 2008 Acordes y Tablaturas para guitarra. Tabs and Chords for guitar. Aviso Legal - Contacto
El uso de este sitio está sujeto a la aceptación de los términos y condiciones (21 usuarios online)