tablaturas, partituras y acordes para guitarra
Busca por banda/artista:
 
y/o título de la canción:
A B C D E F G H I J K L M N O P Q R S T U V W X Y Z 0 1 2 3 4 5 6 7 8 9 / Top 100 tabs
Categorías
Usuarios
usuario:
Darse de alta
password:
Artistas más visitados
Publicidad
TOP acordes y tablaturas de Dave matthews band


Estás en: Inicio > Letra D > Acordes y tablaturas de Dave matthews band > Pantala naga pampa
Pantala naga pampa
de Dave matthews band
Puntúa este acorde/tab:      
(0.2/5)
Reportar este acorde/tab
  Añadir a tus favoritos
  Imprimir

	

	Pantala Naga Pampa

Tabbed by Pat Biondo

Intro
E------------------------------------------------------------
B----------------------------------10-------------------------
G----11-----4/6- -6/4--------------11--------4/6----6/4---------
D-----x-------x-----x--------------x-----------x------x--------
A-----9-------4-----2--------------9-----------3------2--------
E-----10------5-----3--------------10----------5------3---------


Come and relax...           ..... down....
E----------2-----------------3---3---2------------------------
B--8---8---3------3--3-------3---2---3---3---3---------------
G--7---6---2------2--0-------0---x---2---2---0---------------
D--5---x---0------0--0-------2---2---0---0---0---------------
A--7---7---0------x--x-------2---0---0---x---x----------------
E--0---5---2------3--3-------0---0---2---3---3---------------

its a great short song. Props to colin mills

		   
AcordesyTabs.com © 2008 Acordes y Tablaturas para guitarra. Tabs and Chords for guitar. Aviso Legal - Contacto
El uso de este sitio está sujeto a la aceptación de los términos y condiciones (31 usuarios online)