tablaturas, partituras y acordes para guitarra
Busca por banda/artista:
 
y/o título de la canción:
A B C D E F G H I J K L M N O P Q R S T U V W X Y Z 0 1 2 3 4 5 6 7 8 9 / Top 100 tabs
Categorías
Usuarios
usuario:
Darse de alta
password:
Artistas más visitados
Publicidad
TOP acordes y tablaturas de Sum 41


Estás en: Inicio > Letra S > Acordes y tablaturas de Sum 41 > Fat Lip 1
Fat Lip 1
de Sum 41
Puntúa este acorde/tab:      
(0.3/5)
Reportar este acorde/tab
  Añadir a tus favoritos
  Imprimir
-1st i'd like to say this is correct, i got it out of the sum 41 tabs book

-drop down D tuning


Intro
------------------------------------------------------------
------------------------------------------------------------
------------1----------------------------1-------------4--2-
---------------------------4--------------------------------
---0--1--2--------0--1--2-------0--1--2-------0--1--2-------
------------------------------------------------------------
pm........     pm........     pm........    pm.........     X8 

Verse
------------------------------------------------------------
------------------------------------------------------------
--------------------4--4-----2--2---------------------------
---2--2---2--1--2---4--4-----2--2---2--1--2-----------------
---2--2-------------2--2-----0--0------------0--------------
---2--2-----------------------------------------6--4--------
                                                            X2

The "don't count on me" bit
------------------------------------------------------------
------------------------------------------------------------
-------9------7------4--------------------------------------
-----9------7------5----------------------------------------
---7------5------3------------------------------------------
------------------------------------------------------------
                                                            X4
The "i'm not listening part" bit
-------------------------------------------------------------
-------------------------------------------------------------
--------------------------------------2----------------------
--0--1--2---2----------------0--1--2--2----------------------
--0--1--2---2----------------0--1--2--0----------------------
--0--1--2---2----------------0--1--2-------------------------
             X3 (hold for a bit)         (this riff) roughly X6



that's all i can really remember,
cheers

Ryan              
		   
AcordesyTabs.com © 2008 Acordes y Tablaturas para guitarra. Tabs and Chords for guitar. Aviso Legal - Contacto
El uso de este sitio está sujeto a la aceptación de los términos y condiciones (58 usuarios online)