tablaturas, partituras y acordes para guitarra
Busca por banda/artista:
 
y/o título de la canción:
A B C D E F G H I J K L M N O P Q R S T U V W X Y Z 0 1 2 3 4 5 6 7 8 9 / Top 100 tabs
Categorías
Usuarios
usuario:
Darse de alta
password:
Artistas más visitados
Publicidad
TOP acordes y tablaturas de Sum 41


Estás en: Inicio > Letra S > Acordes y tablaturas de Sum 41 > Grab The Devil By The Horns And Fuck Him Up The As
Grab The Devil By The Horns And Fuck Him Up The As
de Sum 41
Puntúa este acorde/tab:      
(0.4/5)
Reportar este acorde/tab
  Añadir a tus favoritos
  Imprimir
Grab the Devil by the Horns and Fuck Him Up the Ass
Sum 41
Half Hour of Power


e ---2-3-5-3-2----------2-3-5-3-2-----
b -5-------------5-3--5--------------5-3Guitar one plays 3 1/2 times
g -----------------------------------------
d -----------------------------------------
a -----------------------------------------
e -----------------------------------------

e -7-5-7-8-7-5--------7-5-7-8-7-5----
b ----------------8-7-----------------8-7Guitar two plays 1 1/2 times
g -----------------------------------------
d -----------------------------------------
a -----------------------------------------
e -----------------------------------------

e -----------------------------------------
b -----------------------------------------Guitar one plays once
g -----------------------------------------
d -----------------------------------------
a ---------2-------------------------------
e -3-2-0----2-3--------------------------

e ---------7-------------------------------
b -8-7-5----7-8--------------------------Guitar two plays once
g -----------------------------------------
d -----------------------------------------
a -----------------------------------------
e -----------------------------------------

    [Palm muted..............................................................]
e [---------------------------------------------------------------]-------------
b [---------------------------------------------------------------]-------------
g [---------------------------------------------------------------]-------------
d [9--------------------7-------------------5--------------------]--------------
a [7-777-777-777-7-5-555-555-555-5-3-333-333-333-3]--------2-------- a -2
e [---------------------------------------------------------------]3-2-0----2-3-





    [Palm muted.......................................]
e [-----------------------------------------------]-------------------------7---
b [-----------------------------------------------]-----------------8-7-5----7-8
g [-----------------------------------------------]-----------------------------
d [-9--------------------7--------------------5-]-------------------------------
a [-7--------------------5--------------------3-]-------------------------------
e [----------------------------------------------]------------------------------


e ---2-3-5-3-2----------2-3-5-3-2----------2-3-5-3-2---------------7-------
b -5-------------5-3--5--------------5-3--5--------------5-3--8-7-5----7-8--G-2 
g ------------------------------------------------------------------------------
d ------------------------------------------------------------------------------
a ------------------------------------------------------------------------------
e ------------------------------------------------------------------------------

   [    once   ][Palm muted..... played 2X...........................]
e ------------[-----------------------------------------------------------------
b ------------[-----------------------------------------------------------------
g ------------[-----------------------------------------------------------------
d ------------[-----------------------------------------------------------------
a ------2----[------2-------2-------2--------2-------2-------2---------2-------]
e -3-2----3-[000-0--000-0--000-0--000-0--000-0--000-0---3-2----3-----]


e -----------------------------------------------------  e ------
b -----------------------------------------------------played 2X then  b ------
g -----------------------------------------------------  g ------
d -----5------5-------5-5-4------5------5-----------  d -2---
a -------------------------------------------------2---  a -2---
e -000---000---000---------000---000---3-2---3-  e -0---

And that’s it.  I feel it’s accurate, however, I see how I may make it look conf
		   
AcordesyTabs.com © 2008 Acordes y Tablaturas para guitarra. Tabs and Chords for guitar. Aviso Legal - Contacto
El uso de este sitio está sujeto a la aceptación de los términos y condiciones (52 usuarios online)