tablaturas, partituras y acordes para guitarra
Busca por banda/artista:
 
y/o título de la canción:
A B C D E F G H I J K L M N O P Q R S T U V W X Y Z 0 1 2 3 4 5 6 7 8 9 / Top 100 tabs
Categorías
Usuarios
usuario:
Darse de alta
password:
Artistas más visitados
Publicidad
TOP acordes y tablaturas de Sum 41


Estás en: Inicio > Letra S > Acordes y tablaturas de Sum 41 > Handle This Solo
Handle This Solo
de Sum 41
Puntúa este acorde/tab:      
(0.4/5)
Reportar este acorde/tab
  Añadir a tus favoritos
  Imprimir
Artist: Sum 41
Song: Handle this (solo)

tabbed by: GregM(@gmx.net)

this is the "real" version of the solo:

e-------12----14-14h15p14---------
B----15----15-------------15------
G-14-------------------------(14)-

e---------12----12-14-14h15p15----
B------15----15----------------15-
G-(14)----------------------------

e------------------------------------------------
B------------------------------------------------
G-16-14-12--11-12-14-14--11-12-14-14--14h16-14---

e------------------------------------------------
B------------------------------------------------
G-12-11-9--12-11-7-------------------------------

ENJOY!!!!!!!!
		   
AcordesyTabs.com © 2008 Acordes y Tablaturas para guitarra. Tabs and Chords for guitar. Aviso Legal - Contacto
El uso de este sitio está sujeto a la aceptación de los términos y condiciones (50 usuarios online)