tablaturas, partituras y acordes para guitarra
Busca por banda/artista:
 
y/o título de la canción:
A B C D E F G H I J K L M N O P Q R S T U V W X Y Z 0 1 2 3 4 5 6 7 8 9 / Top 100 tabs
Categorías
Usuarios
usuario:
Darse de alta
password:
Artistas más visitados
Publicidad
TOP acordes y tablaturas de Sum 41


Estás en: Inicio > Letra S > Acordes y tablaturas de Sum 41 > Hell Song Solo
Hell Song Solo
de Sum 41
Puntúa este acorde/tab:      
(0.2/5)
Reportar este acorde/tab
  Añadir a tus favoritos
  Imprimir
aRtIsT: sUm 41
SoNg: HeLl SoNg
AlBuM: dOeS tHiS lOoK iNfEcTeD?
sUbMitTeR: mIcKeY e.



HELL SONG SOLO:
|------------------------------------------------------------------------
|--9-----99999----9-----99999-------------------------------------------- 
|--11(13)---------11(13)-------11----11-11-11-11/9/8----6-8-9-6/8-4/6-3--
|------------------------------------------------------------------------
|------------------------------------------------------------------------
|------------------------------------------------------------------------

-------------------------------
-------------------------------
--4-6-8-9/8-6-4/6-8------------
-------------------------------
-------------------------------
-------------------------------

--------------------------------------------------------------------
--------------------------------------------------------------------
--------------------------------------------------------------------
-8h9p8h9p8h9--9h11p9h11p9h11--11h13p11h13p11h13--13h14p13h14p13h14--
--------------------------------------------------------------------
--------------------------------------------------------------------

-----------------------------------------------
--9--------11-------12-------14-----14-12-12---
--11(13)---13(15)---14(16)---16(18)------------
-----------------------------------------------
-----------------------------------------------
-----------------------------------------------

------------------------------------------------------------------------
--14/16-----16-16-16-16---14/16-----16-16-16-16---16-----19-------------
--16/18(20)---------------16/18(20)---------------18(20)------18-16-16--
------------------------------------------------------------------------
------------------------------------------------------------------------
------------------------------------------------------------------------

--------------------------
--16-----19---------------
--18(20)-------18-16-16---
--------------------------
--------------------------
--------------------------

-------------------------------------------------------|
--11/12/11---------------------------------------------|
-----------13-11-13-11---------------------------------|
-----------------------13-11-13-11---11-9-11-9---9~----|
-------------------------------------------------------|
-------------------------------------------------------|
		   
AcordesyTabs.com © 2008 Acordes y Tablaturas para guitarra. Tabs and Chords for guitar. Aviso Legal - Contacto
El uso de este sitio está sujeto a la aceptación de los términos y condiciones (34 usuarios online)