tablaturas, partituras y acordes para guitarra
Busca por banda/artista:
 
y/o título de la canción:
A B C D E F G H I J K L M N O P Q R S T U V W X Y Z 0 1 2 3 4 5 6 7 8 9 / Top 100 tabs
Categorías
Usuarios
usuario:
Darse de alta
password:
Artistas más visitados
Publicidad
TOP acordes y tablaturas de Sum 41


Estás en: Inicio > Letra S > Acordes y tablaturas de Sum 41 > In Too Deep Complete
In Too Deep Complete
de Sum 41
Puntúa este acorde/tab:      
(0.2/5)
Reportar este acorde/tab
  Añadir a tus favoritos
  Imprimir
In Too Deep - Sum 41
Tuning : D A D G B E
Tabbed: -=[BoomeR]=- Sherwin Villareal

Intro + Verse
Clean tone, gtr.1

-|----------------------------------------------------------------------------
-|----------------------------------------------------------------------------
-|----------------------------------------------------------------------------
-|-------------6-7-9-7---------------6----------------------------------------
-|----7------7---------0-0-0-0-6-7-9------------------------------------------
-|--0------0------------------------------------------------------------------
 pm -      -------     ------------ 

(2 guitars are playing different riffs)

       PM>>>>>>>>>>>>>>>>>>>>>>>>>>>>>>>>>>>>>>>>>>>>>>>>>>>>>>>>>>>>>>>>>>>>>>>
E-|-----------------------------------------------------------------------------
B-|--------------------------------9--------------------------------------------
G-|----------------------9------------------------------------------------------
D-|------9--9--9----9---------9--------9----------9--9--9----9----7----6----7---
A-|-----------------------------------------------------------------------------
D-|-----------------------------------------------------------------------------

E-|-----------------------------------------------------------------------------
B-|--------------------------------9--------------------------------------------
G-|----------------------9------------------------------------------------------
D-|------9--9--9----9---------9--------9----------9--9--9----9----7----6--------
A-|-------------------------------------------------------------------------9---
D-|-----------------------------------------------------------------------------

        E                     A                    E                 A5
E-|---------------------------5-----5-----5-------------------------------------
B-|-----9------9----9---------5-----5-----5--------9-----9----9-----------------
G-|-----9------9----9---------6-----6-----6--------9-----9----9-----------------
D-|-----9------9----9---------7-----7-----7--------9-----9----9------7--7--7--7-
A-|------------------------------------------------------------------7--7--7--7-
D-|------------------------------------------------------------------7--7--7--7-


Chorus:   E    A   (X7)  Then....
        
-|---------------|------------------------------------------------------------
-|---------------|------------------------------------------------------------
-|-------2-2-2---|-9-9-9-9-7-7-7----------------------------------------------
-|-2-2-0-2-2-2-0-|-9-9-9-9-7-7-7----------------------------------------------
-|-2-2-0-0-0-0-0-|-7-7-7-7-5-5-5-0-7-7-7-7-x-x-x-x-x-x-x-0--------------------
-|-0-0-----------|-7-7-7-7-------0-5-5-5-5-x-x-x-x-x-x-x-0--------------------

-|----------------------------------------------------------------------------
-|----------------------------------------------------------------------------
-|-----/9-----------------/9-----------------/13---------------/13------------
-|-----/x-----------------/x-----------------/x----------------/x-------------
-|-----/7---7-7-7-7-------/7---7-7-7-7-------/11-7-7-7-7-------/11-7-7-6-4----
-|-0-0----0-5-5-4-5---0-0----0-5-5-4-5---0-0-----5-5-4-5---0-0-----5-5-4-2----

Verse 2:  

      E        G#   A                E        G#   A    G#   A
E-|------------------------------------------------------------------------
B-|------------------------------------------------------------------------
G-|------------------------------------------------------------------------   X2
D-|---2--2------6---7--7--------7----2--2-----6---7--7---6---7--7--------7-
A-|---2--2------6---7--7--------7----2--2-----6---7--7---6---7--7--------7-
D-|---0--0------4---5--5--------5----0--0-----4---5--5---4---5--5--------5-

Chorus
-|-------------------------------------------------------------------------
-|-------------------------------------------------------------------------
-|---------9-------------9-----------9-------------------------------------
-|---------x-------------x-----------x-------------------------------------
-|---------7-------------7-----------7---0-x-x-x-x-x-x---------------------
-|-0-0-0-0-----0-0-0-0-0-----0-0-0-0---0-0-x-x-x-x-x-x---------------------
 pre-solo  gtr. 2          
 

Solo:


Figure (i)
        
E-|---5-p-4-p-0--5-p-4-p-0--7-p-5-p-0--7-p-5-p-0--2-h-4-p-2-h-4-s-5---------
B-|-------------------------------------------------------------------------

Figure (ii)

E-|--------------------------------------------------------------
B-|--9-p-0--10-p-0--12-p-0--10-p-0--9-p-0--7-p-0--9-p-0--10------

Back to figure (i) then

E-|--------------------------------------------------------------------------
B-|--9-p-0--10-p-0--12-p-0--10-p-0--9-p-0--7-p-0---17(19)-bd-(17)-bu-(19)----

Verse 3:

    
E-|-----------------------------------
B-|-----------------------------------
G-|-----------------------------------
D-|--2--2----4--4----7--7----9--9-----
A-|--2--2----4--4----7--7----9--9-----
D-|--0--0----2--2----5--5----7--7-----


Chorus


End Riff:

(This riff is played right through to the end)

E-|--------------------------------------------------------||--0---
B-|--9--10--9--10--12--10--9--10--9--10--9--10--9--7--5--7-||--5---

Let the E string ring out (open) on some of the tabs.

Email: boomer@localbar.com
		   
AcordesyTabs.com © 2008 Acordes y Tablaturas para guitarra. Tabs and Chords for guitar. Aviso Legal - Contacto
El uso de este sitio está sujeto a la aceptación de los términos y condiciones (58 usuarios online)