tablaturas, partituras y acordes para guitarra
Busca por banda/artista:
 
y/o título de la canción:
A B C D E F G H I J K L M N O P Q R S T U V W X Y Z 0 1 2 3 4 5 6 7 8 9 / Top 100 tabs
Categorías
Usuarios
usuario:
Darse de alta
password:
Artistas más visitados
Publicidad
TOP acordes y tablaturas de Sum 41


Estás en: Inicio > Letra S > Acordes y tablaturas de Sum 41 > Makes No Difference Intro
Makes No Difference Intro
de Sum 41
Puntúa este acorde/tab:      
(0.4/5)
Reportar este acorde/tab
  Añadir a tus favoritos
  Imprimir
Tabbed by marcus lubbock 
Makes no difference by sum 41 
Just Intro
x2
e--------------------------
b--------------------------
g-8---------5-5------------
D-8-6-8-8-8-5-5-3-5--------
A-6-----8-8-3-3-----5-6----
E-------6-6-------------4--
x3
e----------------------
b----------------------
g-8-8-8-8-8-8-8-8------
D----------------------
A-6-6-6-6-6-6-6-6------
E----------------------
x1
e-------------------
b-------------------
g-13-13-12----------
D-------------------
A-11-11-10----------
E-------------------
x3
e----------------------
b----------------------
g-8-8-8-8-8-8-8-8------
D----------------------
A-6-6-6-6-6-6-6-6------
E----------------------
x1
e-------------------
b-------------------
g-12-12-13----------
D-------------------
A-10-10-11----------
E-------------------
		   
AcordesyTabs.com © 2008 Acordes y Tablaturas para guitarra. Tabs and Chords for guitar. Aviso Legal - Contacto
El uso de este sitio está sujeto a la aceptación de los términos y condiciones (35 usuarios online)