tablaturas, partituras y acordes para guitarra
Busca por banda/artista:
 
y/o título de la canción:
A B C D E F G H I J K L M N O P Q R S T U V W X Y Z 0 1 2 3 4 5 6 7 8 9 / Top 100 tabs
Categorías
Usuarios
usuario:
Darse de alta
password:
Artistas más visitados
Publicidad
TOP acordes y tablaturas de Dave matthews band


3
de Dave matthews band
Puntúa este acorde/tab:      
(0.2/5)
Reportar este acorde/tab
  Añadir a tus favoritos
  Imprimir


Date: Wed, 6 May 1998 21:11:36 -0700
From: Larry Lee <stimp@msn.com>
Subject: d/dave_matthews_band/34.tab

------------------------------------------------------------
#34
Performed By - Dave Matthews Band
Album - Under The Table And Dreaming
------------------------------------------------------------
Transcribed By:
David Morganthaler (dmbfan@iname.com)
------------------------------------------------------------

#34
--------------

Main Riff:

E------------------------------------------------------------------------------|
B------------------------------------------------------------------------------|
G----------------------11------6---------7---6-----------------------------|
D-----------9-----9--------4----------7----------4---7--------------------|
A-------7------7-------------------5----------------------5---7---7---9--|
E---5-------------------------------------------------------------------------|

Interlude (1st At 1:29)

E------------------------------------|
B------------------------------------|
G-------------------------------7---|
D----------------9--------7--------|
A-----------7--------5-------------|
E------5----------------------------|

Ending:

E-----------------------------------|
B-----------------------------------|
G-----------------------------------|
D-----------------------------------|
A------5---4-------------5---7---|
E----------------5---7-------------|

Have fun, it's a challenging song that's not as easy as
it sounds.
It's a great piece of work though!
Buy a Dave Matthews Band album when you get the chance,
I guarantee you won't be disappointed!

David Morganthaler

dmbfan@iname.com




		   
AcordesyTabs.com © 2008 Acordes y Tablaturas para guitarra. Tabs and Chords for guitar. Aviso Legal - Contacto
El uso de este sitio está sujeto a la aceptación de los términos y condiciones (25 usuarios online)