tablaturas, partituras y acordes para guitarra
Busca por banda/artista:
 
y/o título de la canción:
A B C D E F G H I J K L M N O P Q R S T U V W X Y Z 0 1 2 3 4 5 6 7 8 9 / Top 100 tabs
Categorías
Usuarios
usuario:
Darse de alta
password:
Artistas más visitados
Publicidad
TOP acordes y tablaturas de Sum 41


Estás en: Inicio > Letra S > Acordes y tablaturas de Sum 41 > Nothing On My Back
Nothing On My Back
de Sum 41
Puntúa este acorde/tab:      
(0.3/5)
Reportar este acorde/tab
  Añadir a tus favoritos
  Imprimir
Sum41  Nothing on my back

I think most of this is right, it sounds ok to me:

Intro:

E-----5---------5---------3---------5--
B-----5---------7---------3---------7--
G-----6---------7---------4---------7--
D-----7---------7---------5---------7--
A-----7---------5---------5---------5--
E-----5---------5---------3---------5--
  
      3         2         3         2

VERSE 1:
PM:
E------5
B------5
G------6              PM FOR A WHILE THEN :
D------7
A------7
E------5

E----5----2----3----5----5--
B----5----2----3----5----5--
G----6----3----4----6----6--
D----7----4----5----7----7--
A----7----4----5----7----7--
E----5----2----3----5----5-

Thats pretty much it for the verse, there is some other chords fitted in betwee

CHORUS:

INTRO:

E----5--
B----7--
G----7--
D----7--       x 3
A----5--
E----5-

Then:

E----5----3----5----1--
B----5----3----7----1--
G----6----4----7----2--
D----7----5----7----3--           x4
A----7----5----5----3--
E----5----3----5----1-

     3    3    3    3






BACK TO INTRO, THEN:

E----x--x--55----xx33----xx55----xx--55--
B----x--x--55----xx33----xx55----xx--77--
G----x--x--66----xx44----xx66----xx--77--
D----x--x--77----xx55----xx77----xx--77--
A----x--x--77----xx55----xx77----xx--55--
E----x--x--55----xx33----xx55----xx--55-


CHORUS

MIDDLE 8:

E----5----5----6----7---------------------
B----7----5----8----9----9----------------
G----7----6----8----9---------9---------9
D----7----7----8----9--------------9-----    x2
A----5----7----6----7--------------------
E----5----5----6----7--------------------

E----5----5----6----7--
B----7----5----8----9--
G----7----6----8----9--
D----7----7----8----9--    x2
A----5----7----6----7--
E----5----5----6----7--

E----5----5----6----
B----7----5----8----
G----7----6----8----
D----7----7----8----     x3
A----5----7----6----
E----5----5----6----

PM:

E--------------------------
B--------------------------
G--------------------------      x4 PM
D--------------------------
A----99995555--------------
E---------------55559999---              

E---------------------------
B---------------------------
G----99997777---------------
D----9999777777779999-------     PM at first, then not
A----7777555577779999-------
E----------------55557777---


Thats just about it, any queries or corrections e-mail me at: danharris_@hotmai
		   
AcordesyTabs.com © 2008 Acordes y Tablaturas para guitarra. Tabs and Chords for guitar. Aviso Legal - Contacto
El uso de este sitio está sujeto a la aceptación de los términos y condiciones (39 usuarios online)