tablaturas, partituras y acordes para guitarra
Busca por banda/artista:
 
y/o título de la canción:
A B C D E F G H I J K L M N O P Q R S T U V W X Y Z 0 1 2 3 4 5 6 7 8 9 / Top 100 tabs
Categorías
Usuarios
usuario:
Darse de alta
password:
Artistas más visitados
Publicidad
TOP acordes y tablaturas de Sum 41


Estás en: Inicio > Letra S > Acordes y tablaturas de Sum 41 > Spiderman
Spiderman
de Sum 41
Puntúa este acorde/tab:      
(0.2/5)
Reportar este acorde/tab
  Añadir a tus favoritos
  Imprimir
I am 100% that this is perfect it's top class

If there is any problmes e-mail me on addyman2000@yahoo.com





------------------------------------------------9--------------
--------------------------------9------10-------------10---9
------------11----9----11-----------------------------------                 REP
--------------------------------------------------------------
---------------------------------------------------------------
--------------------------------------------------------------


-----------13-----13------12-----12------11------11---------10--------10
-----------12-----12------11-----11------10------10---------9----------9
------------------------------------------------------------------------------
-------------------------------------------------------------------------------
------------------------------------------------------------------------------
------------------------------------------------------------------------------




Verse

--------------------------------------------------------------------------------
--------------------------------------------------------------------------------
--------------------------------------------------------------------------------
--------------------------------------------------------------------------------
-----------------------------------------------------------------2--3--2--0--2--
-----------2---2--------2---5---5--------5---7---7----5-------------------------



Chorus

-----------2----2----2-----5------7---7---7---8
-----------4----4----4-----7------9---9---9---10
-----------4----4----4-----7------9---9---9---10
----------------------------------------------------
----------------------------------------------------
----------------------------------------------------



		   
AcordesyTabs.com © 2008 Acordes y Tablaturas para guitarra. Tabs and Chords for guitar. Aviso Legal - Contacto
El uso de este sitio está sujeto a la aceptación de los términos y condiciones (55 usuarios online)