tablaturas, partituras y acordes para guitarra
Busca por banda/artista:
 
y/o título de la canción:
A B C D E F G H I J K L M N O P Q R S T U V W X Y Z 0 1 2 3 4 5 6 7 8 9 / Top 100 tabs
Categorías
Usuarios
usuario:
Darse de alta
password:
Artistas más visitados
Publicidad
TOP acordes y tablaturas de Sum 41


Estás en: Inicio > Letra S > Acordes y tablaturas de Sum 41 > Thanks For Nothing
Thanks For Nothing
de Sum 41
Puntúa este acorde/tab:      
(0.3/5)
Reportar este acorde/tab
  Añadir a tus favoritos
  Imprimir
Music X Tabs [http://www.mxtabs.net]
Sum 41 -- Thanks For Nothing
Album: Does This Look Infected?
Name: Kiwi
email: kiwi@victimsofsociety.zzn.com

I only have some of this tabbed out. If I can get the rest of the song I'll fix 

Intro
--------------------------------------------------
--------------------------------------------------
--7--7-7-----3--3-3-----------------5--5-5----
--7--7-7-----3--3-3-----3--3-3------5--5-5----
--5--5-5-----1--1-1-----3--3-3------3--3-3----
------------------------1--1-1----------------- x 2

Guitar 1
----------------------------------------------------------
----------------------------------------------------------
----------------------------------------------------------
--0--2--3--5--00--2--3--5-----2--3--2--55--3--2-----------
----------------------------3-----------------------3-----x 2


Guitar 2
--------------------------------------------------------------------------------
--------------------------------------------------------------------------------
--7-7-7-7-7-7-7-7---3-3-3-3-3-3-3-3---------------------5-5-5-5-5-5-5-5-
--7-7-7-7-7-7-7-7---3-3-3-3-3-3-3-3---3-3-3-3-3-3-3-3---5-5-5-5-5-5-5-5-
--5-5-5-5-5-5-5-5---1-1-1-1-1-1-1-1---3-3-3-3-3-3-3-3---3-3-3-3-3-3-3-3-
--------------------------------------1-1-1-1-1-1-1-1----------------------
strike at played beat
--------------------------------------------------------------------------------
--------------------------------------------------------------------------------
--7-7-7-7-7-7-7-7---3-3-3-3-3-3-3-3---------------------5-5-5-5-5-5-5-5-
--7-7-7-7-7-7-7-7---3-3-3-3-3-3-3-3---3-3-3-3-3-3-3-3---5-5-5-5-5-5-5-5-
--5-5-5-5-5-5-5-5---1-1-1-1-1-1-1-1---3-3-3-3-3-3-3-3---3-3-3-3-3-3-3-3-
--------------------------------------1-1-1-1-1-1-1-1----------------------


Verse

------------------------------------------------------------
------------------------------------------------------------
--7----33-33--------5-xxx----7----33-33--------5-xxx--
--7----33-33---3----5-xxx----7----33-33---3----5-xxx--
--5----11-11---3----3-xxx----5----11-11---3----3-xxx--
---------------1--------------------------1----------
Play in time with singing.


Bridge
--------------------------------------------------------------------------------
--------------------------------------------------------------------------------
--7-7-7-7-7-7-7-7---3-3-3-3-3-3-3-3---------------------5-5-5-5-5-5-5-5-
--7-7-7-7-7-7-7-7---3-3-3-3-3-3-3-3---3-3-3-3-3-3-3-3---5-5-5-5-5-5-5-5-
--5-5-5-5-5-5-5-5---1-1-1-1-1-1-1-1---3-3-3-3-3-3-3-3---3-3-3-3-3-3-3-3-
--------------------------------------1-1-1-1-1-1-1-1----------------------
strike at played beat
--------------------------------------------------------------------------------
--------------------------------------------------------------------------------
--7-7-7-7-7-7-7-7---3-3-3-3-3-3-3-3---------------------5-5-5-5-5-5-5-5-
--7-7-7-7-7-7-7-7---3-3-3-3-3-3-3-3---3-3-3-3-3-3-3-3---5-5-5-5-5-5-5-5-
--5-5-5-5-5-5-5-5---1-1-1-1-1-1-1-1---3-3-3-3-3-3-3-3---3-3-3-3-3-3-3-3-
--------------------------------------1-1-1-1-1-1-1-1----------------------


		   
AcordesyTabs.com © 2008 Acordes y Tablaturas para guitarra. Tabs and Chords for guitar. Aviso Legal - Contacto
El uso de este sitio está sujeto a la aceptación de los términos y condiciones (46 usuarios online)