tablaturas, partituras y acordes para guitarra
Busca por banda/artista:
 
y/o título de la canción:
A B C D E F G H I J K L M N O P Q R S T U V W X Y Z 0 1 2 3 4 5 6 7 8 9 / Top 100 tabs
Categorías
Usuarios
usuario:
Darse de alta
password:
Artistas más visitados
Publicidad
TOP acordes y tablaturas de Sum 41


Estás en: Inicio > Letra S > Acordes y tablaturas de Sum 41 > Were All About
Were All About
de Sum 41
Puntúa este acorde/tab:      
(0.3/5)
Reportar este acorde/tab
  Añadir a tus favoritos
  Imprimir
Artist: Sum 41
Song: Still Waiting
Album:  Does This Look Infected?
Transcribed by: -=[BoomeR]=- Sherwin Villareal
hey punkers just play this as you see...its cool im 99.5% sure of this...

 v - downstroke
 ^ - upstroke
 .
 . - rest (vertical dots)
 .
Standard tuning

Intro:
  0:00
e|---------------------------------------------------------------------|
B|---------------------------------------------------------------------|
G|---------------------------------------------------------------------|
D|--9-9-9-9-9-9-9-9-5-5-5-5-5-5-5-5-----------------4-4-4-4-4-4-4-4----|
A|--7-7-7-7-7-7-7-7-3-3-3-3-3-3-3-3-5-5-5-5-5-5-5-5-2-2-2-2-2-2-2-2----|
E|----------------------------------3-3-3-3-3-3-3-3--------------------|
   pm..............................................................
e|---------------------------------------------------------------------|
B|---------------------------------------------------------------------|
G|------------------------------------------------------------------7--|
D|--9-9-9-9-9-9-9-9-5-5-5-5-5-5-5-5-----------------7-7-7-7-7-7-7-7-7--|
A|--7-7-7-7-7-7-7-7-3-3-3-3-3-3-3-3-5-5-5-5-5-5-5-5-5-5-5-5-5-5-5-5-5--|
E|----------------------------------3-3-3-3-3-3-3-3--------------------|
   pm..............................................................

Repeat 2x:
  0:11
e|---------------------------------------------------------------------|
B|---------------------------------------------------------------------|
G|-------------------5--5--5--5--5--------------------5--5--5--5--5----|
D|---2--2--2--2--2---5--5--5--5--5---2--2--2--2--2----5--5--5--5--5----| Guitar 
A|-72--2--2--2--2---3--3--3--3--3---2--2--2--2--2----3--3--3--3--3----|(intro sl
E|-0		   
AcordesyTabs.com © 2008 Acordes y Tablaturas para guitarra. Tabs and Chords for guitar. Aviso Legal - Contacto
El uso de este sitio está sujeto a la aceptación de los términos y condiciones (50 usuarios online)