tablaturas, partituras y acordes para guitarra
Busca por banda/artista:
 
y/o título de la canción:
A B C D E F G H I J K L M N O P Q R S T U V W X Y Z 0 1 2 3 4 5 6 7 8 9 / Top 100 tabs
Categorías
Usuarios
usuario:
Darse de alta
password:
Artistas más visitados
Publicidad
TOP acordes y tablaturas de Sum 41


Estás en: Inicio > Letra S > Acordes y tablaturas de Sum 41 > What Were All About Intro
What Were All About Intro
de Sum 41
Puntúa este acorde/tab:      
(0.2/5)
Reportar este acorde/tab
  Añadir a tus favoritos
  Imprimir
-----------------9-------x2
-----------9--10---10-9--
11--9--11----------------
-------------------------
-------------------------
-------------------------


----------------12------
----------12--14--14--12
14--13--14--------------
------------------------
------------------------
------------------------


14---13---12--11--------
--13----12--11--10------
------------------------
------------------------
------------------------
------------------------
ok this is my first tab so it might suck but you can deal with that.
I swear that this is right. I know its just the intro but thats all i know.
		   
AcordesyTabs.com © 2008 Acordes y Tablaturas para guitarra. Tabs and Chords for guitar. Aviso Legal - Contacto
El uso de este sitio está sujeto a la aceptación de los términos y condiciones (45 usuarios online)