tablaturas, partituras y acordes para guitarra
Busca por banda/artista:
 
y/o título de la canción:
A B C D E F G H I J K L M N O P Q R S T U V W X Y Z 0 1 2 3 4 5 6 7 8 9 / Top 100 tabs
Categorías
Usuarios
usuario:
Darse de alta
password:
Artistas más visitados
Publicidad
TOP acordes y tablaturas de Supergrass


Eon
de Supergrass
Puntúa este acorde/tab:      
(0.4/5)
Reportar este acorde/tab
  Añadir a tus favoritos
  Imprimir
Supergrass - Eon

- Tabbed by William Woollard


Opening Riff

e-------------------------------------------------------------------------
b-------------------------------------------------------------------------
g-------------7----------6-----5------------4-------2-----2/7-------------
d--------7---------6-----5------------4-----3-------2-----2/7-------------X 2
a-------------------------------------------------------------------------
e-------------------------------------------------------------------------

e--------0------0-----0-----0----0----0----0--------
b--------0------0-----0-----0----0----3----0--------(Strum to rhythm
g -------7------7-----6-----5----5----4----4--------of lead guitar)
d--------7------6-----5-----5----4----3----2--------
a---------------------------------------------------
e---------------------------------------------------

Main Riff

e------------------------------------------4-------------------4----------------
b--------------2------------2--------------------2--------------------2---------
g------------------2-------------2---------------------2----------------------2-
d------2--------------2-------------2-------------------------------------------
a-------------------------------------------------------------------------------
e-------------------------------------------------------------------------------

e-----------------------------------------------4-------------------4-----------
b----------------2---------------2--------------------2----------------------2--
g-------------------2---------------2------------------------2------------------
d-------2/4-------------4--------------3----------------------------------------
a-------------------------------------------------------------------------------
e-------------------------------------------------------------------------------


e-------------------------------------------------------------------------------
b--------------3------------------2--------------------3--------------------3---
g--------------------2--------------------2-------------------2-----------------
d-------2/4------------------4--------------------4---------------------4-------
a-------------------------------------------------------------------------------
e-------------------------------------------------------------------------------

e-------------------------------------------------------------------------------
b-------------4------------------4-----------------4-----3------------------3---
g------------------2------------------2--------------------------2--------------
d-------------------------4------------------4--------------------------4-------
a-------------------------------------------------------------------------------
e-------------------------------------------------------------------------------

End Riff
Same as ‘Opening Riff’

Lyrics 

I know you’re out there, your soul a shooting star. 
You don’t know what you’ve done, you’re a mirror for us all.

And now we’re loaded, we don’t know who you are.
You don’t know what you’ve done, you’re a mirror for us all.

You’re slowly fading, your glow is almost gone. 
You don’t know what you’ve done, you’re a mirror for us all.


Comments, Additions, Corrections - E-mail them to W_Woollard@Hotmail.com

		   
AcordesyTabs.com © 2008 Acordes y Tablaturas para guitarra. Tabs and Chords for guitar. Aviso Legal - Contacto
El uso de este sitio está sujeto a la aceptación de los términos y condiciones (34 usuarios online)