tablaturas, partituras y acordes para guitarra
Busca por banda/artista:
 
y/o título de la canción:
A B C D E F G H I J K L M N O P Q R S T U V W X Y Z 0 1 2 3 4 5 6 7 8 9 / Top 100 tabs
Categorías
Usuarios
usuario:
Darse de alta
password:
Artistas más visitados
Publicidad
TOP acordes y tablaturas de Supergrass


Richard Iii
de Supergrass
Puntúa este acorde/tab:      
(0.3/5)
Reportar este acorde/tab
  Añadir a tus favoritos
  Imprimir
Supergrass - Richard III

- Tabbed by Bill Robinson


         A5   Eb5   A5    Eb5   A5    Eb5   A5    Eb5
intro:
e------------------------------------------------
B------------------------------------------------
G-------8888--------8888--------8888--------8888-
D-7777--8888--7777--8888--7777--8888--7777--8888-
A-7777--6666--7777--6666--7777--6666--7777--6666-
E-5555--------5555--------5555--------5555-------
                             C5  A5    Eb
RIFF1 e----------------RIFF2e---------------
      B----------------     B---------------
      G-55577788810-     G-9-------8888-
      D----------------     D-107777--8888-
      A-3335556668--     A-107777--6666-
      E----------------     E-8-5555------- X4

verse1:(RIFF2 played throughout verses)
       Got up today,what a day, thanks a million
       Spending too much time wondering why
       I got an opinion, yeah
       C                            Ab
chorus:I know you wanna try and get away
       G
       But it's the hardest thing

       You'll ever know RIFF1

verse2:Waiting in line, terrible time,overfamiliar
       Well take them away they've nothing to say
       You're over the hill, yeah
repeat chorus

theremin solo:
       e-----------------------------------
       B-13-------------------13-----------
       G---12--14---------------12--14-----
       D----------14--12---------------14--
       A------------------15---------------
       E-----------------------------------

       e------------------------
       B-13---------------------
       G---12--14---------------
       D----------14--12--------
       A------------------15----
       E------------------------

       C5            A5      C5            A5
       Trying to get at you  Trying to get at you

      
e-----------------------------------------------
B-13------------------13----------13------------
G---12--14--------------12--14------12--14--17--
D----------14--12-------------14----------------
A-----------------15----------------------------
E-----------------------------------------------
       C5            A5      C5            A5
       Trying to get at you  Trying to get at you
       Trying to get at you  Trying to get at you
 
guitar solo(w/wah-wah)
       e---------------------------------------------
       B---------------------------------------------
       G------888--7^--5----5---------8888-----------
       D-7777-888--------7----7--7777-8888-----------
       A-7777-666----------------7777-6666-----------
       E-5555--------------------5555----------------

      
e-----------------------------------------------
B-----------------------5--5--5--5--5-----------
G-------5--------5---7--7^-7^-7^-7^-7^--8-8-8-8-
D-777----7-777---7----------------------------
A-----------------------------------------------
E-----------------------------------------------

      
e-----------------------------------------------
B-5--5--5--5--5---------------------------------
G-7^-7^-7^-7^-7^----8-8-8-8--7^--5----5---------
D-----------------------------------7-----------
A-----------------------------------------------
E-----------------------------------------------

repeat chorus X2

RIFF3:e-----------------------------------
      B-----------------------------------
      G-5-5-57-7-78-8-810-10-1011-----
      D-----------------------------------
      A-3-3-35-5-56-6-68--8--8-9------
      E-----------------------------------

		   
AcordesyTabs.com © 2008 Acordes y Tablaturas para guitarra. Tabs and Chords for guitar. Aviso Legal - Contacto
El uso de este sitio está sujeto a la aceptación de los términos y condiciones (23 usuarios online)