tablaturas, partituras y acordes para guitarra
Busca por banda/artista:
 
y/o título de la canción:
A B C D E F G H I J K L M N O P Q R S T U V W X Y Z 0 1 2 3 4 5 6 7 8 9 / Top 100 tabs
Categorías
Usuarios
usuario:
Darse de alta
password:
Artistas más visitados
Publicidad
TOP acordes y tablaturas de Supergrass


Estás en: Inicio > Letra S > Acordes y tablaturas de Supergrass > You Can See Me
You Can See Me
de Supergrass
Puntúa este acorde/tab:      
(0.1/5)
Reportar este acorde/tab
  Añadir a tus favoritos
  Imprimir
Supergrass - You Can See Me


- Tabbed by Alun Morgan  - email: ottomann@hotmail.com


I can't believe no one has ever tabbed this, it's a simple enough song except fo

Intro

e----------|             e----
b----------|             b----
g----------|  X 4 then   g---- 
d----------|             d----    
a----------|             a----   
e--5-5-5-5-|             e--0- 


Verse 1
Am
If you like me you can buy me 

Dm
And take me home

F
When you see me

C
On your tv
 
G
I'm alone

Am                 D4 (xx0244)  Dm
You can call me tell your story on the phone

F               C
You can hear me over blue seas 

G
I'm alone


Chorus

G6             Em7 (add 13th)        C5           F5       
You can see me I'm not running about     (You can see me)

G6             C5                    F5           E5       F5(var.2)
You can see me I'm not running about     (You can see me)


Verse 2

Same chords as first verse

Chorus

Verse 3

Same chords as first verse

Outro

This is a riff which is also used throughout the song (bass plays this through t

e-------
b-------
g-------
d-------
a--7-3-0
e-------

Chord Help

Bet you're glad I'm going to tell you how to play those chords. They sound hard 

Low
   G6   Em7 (add 13th)  C5    F5   E5   F5(var.2)
e--x-----x--------------x-----x----x----x--------
b--x-----x--------------x-----x----x----x--------
g--x-----x--------------x-----x----x----x--------
d--x-----x--------------x-----x----x----2--------
a--2-----4--------------3-----3----2----2--------
e--3-----3--------------3-----1----0----x--------


high
   G6   Em7 (add 13th)  C5    F5   E5   F5(var.2)
e--x-----x--------------x-----x----x----x-------
b--x-----x--------------x-----x----x----x-------
g--x-----x--------------x-----x----x----9-------
d--9-----11-------------10----10---9----9-------
a--10----10-------------10----8----7----x-------
e--x-----x--------------x-----x----x----x-------


Happy Playing

Alun Morgan 22/9/1999 email ottomann@hotmail.com
		   
AcordesyTabs.com © 2008 Acordes y Tablaturas para guitarra. Tabs and Chords for guitar. Aviso Legal - Contacto
El uso de este sitio está sujeto a la aceptación de los términos y condiciones (21 usuarios online)