tablaturas, partituras y acordes para guitarra
Busca por banda/artista:
 
y/o título de la canción:
A B C D E F G H I J K L M N O P Q R S T U V W X Y Z 0 1 2 3 4 5 6 7 8 9 / Top 100 tabs
Categorías
Usuarios
usuario:
Darse de alta
password:
Artistas más visitados
Publicidad
TOP acordes y tablaturas de System Of A Down


1chopsueyintro
de System Of A Down
Puntúa este acorde/tab:      
(0.1/5)
Reportar este acorde/tab
  Añadir a tus favoritos
  Imprimir
Intro-1st guitar part
Strum each octave about 4 times, you can figure out the strumming pattern:
e|---x---x---x---x---------|
B|---x---x---x---x---------| (x4)
G|---15--17--14--12--------| 
D|---x---x---x---x---------| 
A|---13--15--12--10--------|
E|---x---x---x---x---------|

e|--------------------------------------------------------------------|
B|--------------------------------------------------------------------| (x4)
G|--------------------------------------------------------------------| 
D|--------------------------------------------------------------------| 
A|---5-5-5-5-5-5--4-4-4-4-4-4-4--7-7-7-7-7-7-7--10-10-10-10-10-10-10--|
E|---3-3-3-3-3-3--2-2-2-2-2-2-2--5-5-5-5-5-5-5--8--8--8--8--8--8--8---|

Verse:
e|------------------------------------------------------------------------------
B|------------------------------------------------------------------------------
G|------------------------------------------------------------------------------
D|------------------------------------------------------------------------------
A|-5-5--5-5-5-5-5-5-5/4-4-4-4-4-4-4-4/5-5-5-5-5-5-5-5/4-4-4-4-4-4-4-4/5-5-5-5-5-
E|-3-3--3-3-3-3-3-3-3/2-2-2-2-2-2-2-2/3-3-3-3-3-3-3-3/2-2-2-2-2-2-2-2/3-3-3-3-3-
		   
AcordesyTabs.com © 2008 Acordes y Tablaturas para guitarra. Tabs and Chords for guitar. Aviso Legal - Contacto
El uso de este sitio está sujeto a la aceptación de los términos y condiciones (28 usuarios online)