tablaturas, partituras y acordes para guitarra
Busca por banda/artista:
 
y/o título de la canción:
A B C D E F G H I J K L M N O P Q R S T U V W X Y Z 0 1 2 3 4 5 6 7 8 9 / Top 100 tabs
Categorías
Usuarios
usuario:
Darse de alta
password:
Artistas más visitados
Publicidad
TOP acordes y tablaturas de System Of A Down


Aerials 1
de System Of A Down
Puntúa este acorde/tab:      
(0.3/5)
Reportar este acorde/tab
  Añadir a tus favoritos
  Imprimir

Aerials   Tune to down to D

Part A
E|-----------------------------------------------------|
B|-----------------------------------------------------|
G|-----------------------------------------------------|
D|-0-0-0--0--------0-0-0--0--------0-0-0--0-0-0--0-0-0-|
A|-0-0-0--0--------0-0-0--0--------0-0-0--0-0-0--0-0-0-|
D|-3-2-0--0------|-5-3-2--2------|-5-7-8-10-8-7--3-2-0-|

Part B
|--------------------------------------------------------------------
|--------------------------------------------------------------------
|--------------------------------------------------------------------
|--------------------------------------------------------------------
|--------------------------------------------------------------------
|-10/12-10-7--7-7-77--10/14-10-7--7-7-77--12-14-15-17-15-14--12-10-12

Part C
|---------------------| 
|---------------------|
|---------------------|
|-8-8-8-8-8-8-8-8-8-8-|
|-8-8-8-8-8-8-8-8-8-8-|
|-8-8-8-8-8-8-8-8-8-8-|

Part D
|---------------------|
|---------------------|
|---------------------|
|-7-7-7-7-7-7-7-7-7-7-|
|-7-7-7-7-7-7-7-7-7-7-|
|-7-7-7-7-7-7-7-7-7-7-|

Part E
|---------------------------------------------------|
|---------------------------------------------------|
|-----------12-----------10----------9------------7-|
|-0-0-0-0-------0-0-0-0-----0-0-0-0------0-0-0-0----|
|-0-0-0-0---10--0-0-0-0--8--0-0-0-0--7---0-0-0-0--5-|
|-0-0-0-0-------0-0-0-0-----0-0-0-0------0-0-0-0----|

Part F
|----------------------------------------|
|----------------------------------------|
|----------------------------------------|
|-3-2-0-0-0-5-3-2-2-2-5-7-8-10-8-7-3-2-0-|
|-3-2-0-0-0-5-3-2-2-2-5-7-8-10-8-7-3-2-0-|
|-3-2-0-0-0-5-3-2-2-2-5-7-8-10-8-7-3-2-1-|


Part A
Part B

Part C
Part E
Part C
Part E
Part C
Part E
Part C
Part E

Part A x2

Part C
Part E
Part C
Part E
Part C
Part E
Part C
Part D

Part F x3

Part A x4

		   
AcordesyTabs.com © 2008 Acordes y Tablaturas para guitarra. Tabs and Chords for guitar. Aviso Legal - Contacto
El uso de este sitio está sujeto a la aceptación de los términos y condiciones (22 usuarios online)