tablaturas, partituras y acordes para guitarra
Busca por banda/artista:
 
y/o título de la canción:
A B C D E F G H I J K L M N O P Q R S T U V W X Y Z 0 1 2 3 4 5 6 7 8 9 / Top 100 tabs
Categorías
Usuarios
usuario:
Darse de alta
password:
Artistas más visitados
Publicidad
TOP acordes y tablaturas de System Of A Down


Estás en: Inicio > Letra S > Acordes y tablaturas de System Of A Down > Aerials Complete
Aerials Complete
de System Of A Down
Puntúa este acorde/tab:      
(0.8/5)
Reportar este acorde/tab
  Añadir a tus favoritos
  Imprimir
Tabbed By: Robbie Gjesdal
Tuning:Dropped D.
Song Title:Aerials
Band Name:System Of A Down

Section:A
E-----------------------------------------------------------------G
B-----------------------------------------------------------------U
G-----------------------------------------------------------------I
D-----0-----0-----0-----0-----0------0-----0-----0----0----0-----0T
A---0-----0-----0-----0-----0------0-----0-----0----0----0-----0--A
E-3-----2-----0-----0-----0------5-----3-----2----2----2-----2----R

E-----------------------------------------------------------------G
B-----------------------------------------------------------------U
G-----------------------------------------------------------------I
D-----0-----0---0--------0-----0----0-----0-----0-----0----0----0-T
A---0-----0---------0--------0----0-----0-----0-----0----0-----0--A
E-3-----5-----7---8---7----5----3-----2-----0-----0----0-----0----R

E-----------------------------------------------------------------G
B-----------------------------------------------------------------U
G-----------------------------------------------------------------I
D------0------0-----0-----0-----0------0------0-----0-----0-----0-T
A----0------0-----0-----0-----0------0------0-----0-----0-----0---A
E-12-----10-----7-----7-----7-----14-----10-----7-----7-----7-----R


E-----------------------------------------------------------------G
B-----------------------------------------------------------------U
G-----------------------------------------------------------------I
D------0------0-----------0-------0------0------0-----0-------0---T
A----0------0------0------------0------0------0-----0-------0-----A
E-12-----14-----15-----17----15-----14-----12-----10------12------R
Section:B
E-10-G Do This Chord For The
B-10-U Part When The Lyrics
G-10-I Say: Life Is A Water
D-8--T Fall Were One In The
A-8--A River And One Again
E----R After The Fall.

E-----------------------------------------------G
B-----------------------------------------------U
G------------12---------10---------9---------7--I
D-------------X---------X----------X---------X--T
A------------10---------8----------7---------5--A
E--0-0-0-0------0-0-0-0----0-0-0-0---0-0-0-0----R
  Palm Mute    Palm Mute  Palm Mute  Palm Mute

E-10-G Swimming Through 
B-10-U The Void We Hear 
G-10-I The Word, We Lose 
D-8--T Ourselves, But We
A-8--A Find It All
E----R 

E-----------------------------------------------G
B-----------------------------------------------U
G------------12---------10---------9---------7--I
D-------------X---------X----------X---------X--T
A------------10---------8----------7---------5--A
E--0-0-0-0------0-0-0-0----0-0-0-0---0-0-0-0----R
  Palm Mute    Palm Mute  Palm Mute  Palm Mute

E-10-G Cause' We Are The 
B-10-U Ones That Want To
G-10-I Play, Always Want 
D-8--T To Go, But You 
A-8--A Never Want To 
E----R Stay, 

E-----------------------------------------------G
B-----------------------------------------------U
G------------12---------10---------9---------7--I
D-------------X---------X----------X---------X--T
A------------10---------8----------7---------5--A
E--0-0-0-0------0-0-0-0----0-0-0-0---0-0-0-0----R
  Palm Mute    Palm Mute  Palm Mute  Palm Mute


E-10-G And We Are The Ones
B-10-U That Wanna To Chose,
G-10-I You Always Wanna 
D-8--T Play but you never
A-8--A Wanna Lose.
E----R 

Repeat Section A And Then B.

E-------------------G
B-------------------U
G-------------------I
D-6-6-6-6-6-8-8-8-8-T
A-6-6-6-6-6-8-8-8-8-A
E-6-6-6-6-6-8-8-8-8-R

E---------------------------------------G
B---------------------------------------U
G---------------------------------------I
D-3-2-0-0-0-5-3-2-2-2-3-5-7-8-7-5-3-2-0-T X 3
A-3-2-0-0-0-5-3-2-2-2-3-5-7-8-7-5-3-2-0-A
E-3-2-0-0-0-5-3-2-2-2-3-5-7-8-7-5-3-2-0-R

Repeat Section A Then Your Done!

Tabbed By Rob -Rawbart@Hotmail.Com
(I Have MSN Messenger)
		   
AcordesyTabs.com © 2008 Acordes y Tablaturas para guitarra. Tabs and Chords for guitar. Aviso Legal - Contacto
El uso de este sitio está sujeto a la aceptación de los términos y condiciones (30 usuarios online)