tablaturas, partituras y acordes para guitarra
Busca por banda/artista:
 
y/o título de la canción:
A B C D E F G H I J K L M N O P Q R S T U V W X Y Z 0 1 2 3 4 5 6 7 8 9 / Top 100 tabs
Categorías
Usuarios
usuario:
Darse de alta
password:
Artistas más visitados
Publicidad
TOP acordes y tablaturas de System Of A Down


Aerials Intro
de System Of A Down
Puntúa este acorde/tab:      
(0.4/5)
Reportar este acorde/tab
  Añadir a tus favoritos
  Imprimir
Band:System of a Down
Song:Aerials 
By:Alex

This is Intro is 100% correct so don't even bother sending me stuff.
Tuning: Drop D 1 step down

Intro

-----------------------------------------------------------------------------
-----------------------------------------------------------------------------
-----------------------------------------------------------------------------
---------0---------0----------0------------0----------0--------------------0-
------0---------0---------0-----------0-----------0------------------0-------
---3---------2--------0----------0------------0-----------0-----5------------

-----------------------------------------------------------------------------
-----------------------------------------------------------------------------
-----------------------------------------------------------------------------
---------0----------0----------0-------------0---------------0-----------0---
-----0----------0----------0-------------0----------------0----------0-------
-3----------2----------2------------2------------2----3----------5-----------

-----------------------------------------------------------------------------
-----------------------------------------------------------------------------
-----------------------------------------------------------------------------
------------0---------------0--------0----------------------0----------0----
-------0---------------0-----------------------0-------0-----------0--------
-7---------------8--------------7--------5---------3-----------2------------

----------------------------------------------------------------------------
----------------------------------------------------------------------------
----------------------------------------------------------------------------
-------------0----------------0--------------------0--------------0---------
-------0----------------0---------------------0--------------0--------------
--0---------------0----------------0-----12------------10-------------------

----------------------------------------------------------------------------
----------------------------------------------------------------------------
----------------------------------------------------------------------------
-------------0-----------0-----------0------------0-------------0--------0--
--------0------------0-----------0-------------0------------0---------0-----
---7-------------7-----------7-----------7/14----------10----------7--------

----------------------------------------------------------------------------
----------------------------------------------------------------------------
----------------------------------------------------------------------------
------------0----------0------------0------------0----------0---------0-----
-------0------------0-----------0------------0-----------0---------0--------
--7--------------7--------7/12----------14-----------15--------17-----------

----------------------------------------------------------------------------
----------------------------------------------------------------------------
----------------------------------------------------------------------------
-----0-------------------------------------12---12--12--12--12-----------------
--------------0---------------0-------0-----0----0--0----0---0---------------
-15------14------12---12/10-------12-------12---12--12--12---12-----------------
		   
AcordesyTabs.com © 2008 Acordes y Tablaturas para guitarra. Tabs and Chords for guitar. Aviso Legal - Contacto
El uso de este sitio está sujeto a la aceptación de los términos y condiciones (24 usuarios online)