tablaturas, partituras y acordes para guitarra
Busca por banda/artista:
 
y/o título de la canción:
A B C D E F G H I J K L M N O P Q R S T U V W X Y Z 0 1 2 3 4 5 6 7 8 9 / Top 100 tabs
Categorías
Usuarios
usuario:
Darse de alta
password:
Artistas más visitados
Publicidad
TOP acordes y tablaturas de System Of A Down


Aerials
de System Of A Down
Puntúa este acorde/tab:      
(0.3/5)
Reportar este acorde/tab
  Añadir a tus favoritos
  Imprimir
#----------------------------------PLEASE NOTE--------------------------------#
#This file is the author's own work and represents their interpretation of the#
#song. You may only use this file for private study, scholarship, or research.#
#-----------------------------------------------------------------------------#
#-- File created with Instab - http://www.pconline.com/~smcarey/instab.html --#
#-----------------------------------------------------------------------------#

Author/Artist: System Of A Down
Title: Aerials
Album: Toxicity
Transcribed by: james
Email: dasuck@yahoo.com

Tune your guitar down to d. drop low string to c. (CGCFAD)
Daron told me this song was about the beauty of retarded children and how they v
Anyway buy this cd when it comes out.


Intro (2x)

-|----------------------------------------------------------------------------
-|----------------------------------------------------------------------------
-|----------------------------------------------------------------------------
-|-------0--------0--------0--------0--------0--------0--------0--------0-----
-|----0--------0--------0--------0--------0--------0--------0--------0--------
-|-3--------2--------0--------0--------0-------05--------3--------2--------0--
                                                                              

------------------------------------------------------------------------------
------------------------------------------------------------------------------
------------------------------------------------------------------------------
----0--------0--------0--------0--------0-----0-----------0--------0----------
-0--------0--------0--------0--------0--------------0-----------0--------0----
-------0-------03--------5--------7--------8-----7-----5-----3--------2-------
                                                                              

-------------------------------|
-------------------------------|
-------------------------------|
-0--------0--------0--------0--|
-------0--------0--------0-----|
----0--------0--------0--------|
                                                                              


Verse (4x)
-|----------------------------------------------------------------------------
-|----------------------------------------------------------------------------
-|----------------------------------------------------------------------------
-|-8-8-8-8-8-8-8-8-8-8-8-8-8-8-8-8-8-8-8-8-8-8-8-8-8-8-8-8-8-8-8-8-8-8-8------
-|-8-8-8-8-8-8-8-8-8-8-8-8-8-8-8-8-8-8-8-8-8-8-8-8-8-8-8-8-8-8-8-8-8-8-8------
-|-8-8-8-8-8-8-8-8-8-8-8-8-8-8-8-8-8-8-8-8-8-8-8-8-8-8-8-8-8-8-8-8-8-8-8------
       

----------------------------------------------------|
----------8v-----------0------------0------------0--|
----------0-----------10v-----------9v-----------7v-|
-----------------------0------------0------------0--|
-0-0-0-0------0-0-0-0------0-0-0-0------0-0-0-0-----|
-0-0-0-0------0-0-0-0------0-0-0-0------0-0-0-0-----|

Chorus (2x) Vocals on repeat

-|----------------------------------------------------------------------------
-|----------------------------------------------------------------------------
-|----------------------------------------------------------------------------
-|-------0--------0--------0--------0--------0--------0--------0--------0-----
-|----0--------0--------0--------0--------0--------0--------0--------0--------
-|-3--------2--------0--------0--------0-------05--------3--------2--------0--
                                                                      

------------------------------------------------------------------------------
------------------------------------------------------------------------------
------------------------------------------------------------------------------
----0--------0--------0--------0--------0-----0-----------0--------0----------
-0--------0--------0--------0--------0--------------0-----------0--------0----
-------0-------03--------5--------7--------8-----7-----5-----3--------2-------

-------------------------------|
-------------------------------|
-------------------------------|
-0--------0--------0--------0--|
-------0--------0--------0-----|
----0--------0--------0--------|


2nd Verse (4x)

-|----------------------------------------------------------------------------
-|----------------------------------------------------------------------------
-|----------------------------------------------------------------------------
-|-8-8-8-8-8-8-8-8-8-8-8-8-8-8-8-8-8-8-8-8-8-8-8-8-8-8-8-8-8-8-8-8-8-8-8------
-|-8-8-8-8-8-8-8-8-8-8-8-8-8-8-8-8-8-8-8-8-8-8-8-8-8-8-8-8-8-8-8-8-8-8-8------
-|-8-8-8-8-8-8-8-8-8-8-8-8-8-8-8-8-8-8-8-8-8-8-8-8-8-8-8-8-8-8-8-8-8-8-8------
       

----------------------------------------------------|
----------8v-----------0------------0------------0--|
----------0-----------10v-----------9v-----------7v-|
-----------------------0------------0------------0--|
----------------------------------------------------|
-0-0-0-0------0-0-0-0------0-0-0-0------0-0-0-0-----|
                                                     

-|--------------------------------------------------|
-|--------------------------------------------------|
-|--------------------------------------------------|
-|-7-7-7-7-7-7-7-7-7-7-7-7-7-7-7-7-7-7-7-7-7-7-7-777|
-|-7-7-7-7-7-7-7-7-7-7-7-7-7-7-7-7-7-7-7-7-7-7-7-777|
-|-7-7-7-7-7-7-7-7-7-7-7-7-7-7-7-7-7-7-7-7-7-7-7-777|
                                                                              

Bridge (4x)

-|----------------------------------------------------------------------------
-|----------------------------------------------------------------------------
-|----------------------------------------------------------------------------
-|-3---2---0------5---3---2------3---5---7---8---7---5---3---2---0------------
-|-3---2---0------5---3---2------3---5---7---8---7---5---3---2---0------------
-|-3---2---0------5---3---2------3---5---7---8---7---5---3---2---0------------
                                                                          

Outro (4x)

-|----------------------------------------------------------------------------
-|----------------------------------------------------------------------------
-|----------------------------------------------------------------------------
-|-------0--------0--------0--------0--------0--------0--------0--------0-----
-|----0--------0--------0--------0--------0--------0--------0--------0--------
-|-3--------2--------0--------0--------0-------05--------3--------2--------0--
                                                                      

------------------------------------------------------------------------------
------------------------------------------------------------------------------
------------------------------------------------------------------------------
----0--------0--------0--------0--------0-----0-----------0--------0----------
-0--------0--------0--------0--------0--------------0-----------0--------0----
-------0-------03--------5--------7--------8-----7-----5-----3--------2-------

-------------------------------|
-------------------------------|
-------------------------------|
-0--------0--------0--------0--|
-------0--------0--------0-----|
----0--------0--------0--------|


Life is a waterfall
We're one in the river and one again after the fall
Swimming through the void we hear the word
We lose ourselves but we find it all
Cause we are the ones that want to play
Always want to go but you never want to stay
We are the ones that want to choose
Always want to play but you never want to lose

Aerials, in the sky
When you lose small mind
you free your life

Life is a waterfall
We drink from the river then we turn around and put up our walls
Swimming through the void we hear the word
We lose ourselves but we find it all
Cause we are the ones that want to play
Always want to go but you never want to stay
We are the ones that want to choose
Always want to play but you never want to lose, ohhhhhh

Aerials, in the sky
When you lose small mind
you free your life

Aerials, so up high
When you free your eyes
eternal prize

		   
AcordesyTabs.com © 2008 Acordes y Tablaturas para guitarra. Tabs and Chords for guitar. Aviso Legal - Contacto
El uso de este sitio está sujeto a la aceptación de los términos y condiciones (35 usuarios online)