tablaturas, partituras y acordes para guitarra
Busca por banda/artista:
 
y/o título de la canción:
A B C D E F G H I J K L M N O P Q R S T U V W X Y Z 0 1 2 3 4 5 6 7 8 9 / Top 100 tabs
Categorías
Usuarios
usuario:
Darse de alta
password:
Artistas más visitados
Publicidad
TOP acordes y tablaturas de System Of A Down


Arials Intro
de System Of A Down
Puntúa este acorde/tab:      
(0.2/5)
Reportar este acorde/tab
  Añadir a tus favoritos
  Imprimir
He plays this song kinda funny and he drops the low E to a C so itll be 
fun i promise


e--------------------------------------------------------------------
B--------------------------------------------------------------------
G--------------------------------------------------------------------
D----0---0-----0--0--------------------------------------------------
A---0---0-----0--0---------------------------------------------------
C--3---2---0-5--3--2---3-5-6-8-6-5-3-2-0---12-10-7-14-10-7-12-14-15--

e--------------------------------------------------------------------
B--------------------------------------------------------------------
G--------------------------------------------------------------------
D--------------------------------------------------------------------
A--------------------------------------------------------------------
C--17-15-14-12-7-----------------------------------------------------

Then repeat this a few times

Im pretty sure thats how it goes i just learned it not to long ago and im
in school rite now so i dont have my guitar so if its wrong ill post it again
		   
AcordesyTabs.com © 2008 Acordes y Tablaturas para guitarra. Tabs and Chords for guitar. Aviso Legal - Contacto
El uso de este sitio está sujeto a la aceptación de los términos y condiciones (45 usuarios online)