tablaturas, partituras y acordes para guitarra
Busca por banda/artista:
 
y/o título de la canción:
A B C D E F G H I J K L M N O P Q R S T U V W X Y Z 0 1 2 3 4 5 6 7 8 9 / Top 100 tabs
Categorías
Usuarios
usuario:
Darse de alta
password:
Artistas más visitados
Publicidad
TOP acordes y tablaturas de System Of A Down


Atwa 6
de System Of A Down
Puntúa este acorde/tab:      
(0.4/5)
Reportar este acorde/tab
  Añadir a tus favoritos
  Imprimir
band-System Of A Down
abulm-Toxiciy
song-Atwa
tab by-Anthony Fain


       here is the song hope you like it is a cool song to play 
       and not very hard to play


intro           play 2x
1----------------------------------------------------------------
2----------------------------------------------------------------
3------1---------0-------3--------5---------6-------------5------
4----------------------------------------------------------------
5----------------------------------------------------------------
6----3----3---1-----1h5-----5-6------6---8------8----6-------5---


1----------------------------------------------------------------
2----------------------------------------------------------------
3-----1----------------------------------------------------------
4----------------------------------------------------------------
5----------------------------------------------------------------
6--3-----3-------------------------------------------------------

                         have fun
		   
AcordesyTabs.com © 2008 Acordes y Tablaturas para guitarra. Tabs and Chords for guitar. Aviso Legal - Contacto
El uso de este sitio está sujeto a la aceptación de los términos y condiciones (26 usuarios online)