tablaturas, partituras y acordes para guitarra
Busca por banda/artista:
 
y/o título de la canción:
A B C D E F G H I J K L M N O P Q R S T U V W X Y Z 0 1 2 3 4 5 6 7 8 9 / Top 100 tabs
Categorías
Usuarios
usuario:
Darse de alta
password:
Artistas más visitados
Publicidad
TOP acordes y tablaturas de System Of A Down


Atwa Solo
de System Of A Down
Puntúa este acorde/tab:      
(0.3/5)
Reportar este acorde/tab
  Añadir a tus favoritos
  Imprimir
|-------------------------------------------------------|
|-------------------------------------------------------|
|-12-1210-10/14-14/15-15/17-1715-1514-1412-12-------|
|-------------------------------------------------------|
|-10-108--8-/12-12/13-13/15-1513-1312-1210-10-------|
|-------------------------------------------------------|
 Solo                                                                         

|------------------------------------------------------------------------------|
|------------------------------------------------------------------------------|
|-12-12-12-12-12-12-12-10-10-10-10-10-10-10-10-14-14-14-14-14-14-14-14-15-15---|
|------------------------------------------------------------------------------|
|------------------------------------------------------------------------------|
|------------------------------------------------------------------------------|
 This here you use an artificial harmonic                                     

|------------------------------------------------------------------------------|
|------------------------------------------------------------------------------|
|-15-15-15-15-15-15-17-17-17-17-17-17-17-17-15-15-15-15-15-15-15-15-14-14-14---|
|------------------------------------------------------------------------------|
|------------------------------------------------------------------------------|
|------------------------------------------------------------------------------|
                                                                              

|---------------------------------------------------------------|
|---------------------------------------------------------------|
|-14-14-14-14-14-12v--------------------------------------------|
|--------------------5-53-3/7-7/8-8/10-108-87-75-5-5-5-5----|
|--------------------5-53-3/7-7/8-8/10-108-87-75-5-5-5-5----|
|--------------------5-53-3/7-7/8-8/10-108-87-75-5-5-5-5----|
                                                                              

|-------------------------------------------|
|-------------------------------------------|
|-------------------------------------------|
|-5-53-3/7-7/8-8/10-108-87-75-5-5-5-5---|
|-5-53-3/7-7/8-8/10-108-87-75-5-5-5-5---|
|-5-53-3/7-7/8-8/10-108-87-75-5-5-5-5---|
                                               
		   
AcordesyTabs.com © 2008 Acordes y Tablaturas para guitarra. Tabs and Chords for guitar. Aviso Legal - Contacto
El uso de este sitio está sujeto a la aceptación de los términos y condiciones (33 usuarios online)