tablaturas, partituras y acordes para guitarra
Busca por banda/artista:
 
y/o título de la canción:
A B C D E F G H I J K L M N O P Q R S T U V W X Y Z 0 1 2 3 4 5 6 7 8 9 / Top 100 tabs
Categorías
Usuarios
usuario:
Darse de alta
password:
Artistas más visitados
Publicidad
TOP acordes y tablaturas de System Of A Down


Atwa
de System Of A Down
Puntúa este acorde/tab:      
(0.4/5)
Reportar este acorde/tab
  Añadir a tus favoritos
  Imprimir
Artist: System of a Down
Title: ATWA
Album: Toxicity
Released: September 04, 2001
Guitarist: Daron Malakian
Tab Author: Dirk Lithium
Contact Info...
Email: stridersquall@emux.net | ICQ: 33312210

Tuning: Dropped D [D A D G B E]
(Instructions: Drop top string down 2 steps)

Intro/Verses
Clean, No Distortion
"All the world I've seen before me passing by..."
E|-------------------------------------------------------------------
B|-------------------------------------------------------------------
G|----1------0------3------5-----6-----5------3------1---------------
D|-------------------------------------------------------------------
A|-------------------------------------------------------------------
D|-3----3-1----1-5----5-6----6-8---8-6---6-5----5-3----3-------------
Repeat four times.

Chorus
HEAVY DISTORTION!!
"You don't care bout how I feel..."
E|-------------------------------------------------------------------
B|-------------------------------------------------------------------
G|-------------------------------------------------------------------
D|-3333333--3333333--3333333--3333333--------------------------------
A|-3333333--3333333--3333333--3333333--------------------------------
D|-3333333--3333333--3333333--3333333--------------------------------
Repeat twice.

Bridge
HEAVY DISTORTION!!
"I don't see, I don't hear, I don't stink, I don't feel..."
E|-------------------------------------------------------------------
B|-------------------------------------------------------------------
G|-------------------------------------------------------------------
D|-3--3--3--4--3--3--3--4--3--3--3--4--3--3--3--4--------------------
A|-3--3--3--4--3--3--3--4--3--3--3--4--3--3--3--4--------------------
D|-3--3--3--4--3--3--3--4--3--3--3--4--3--3--3--4--------------------

Solo
Medium Distortion
E|-------------------------------------------------------------------
B|-------------------------------------------------------------------
G|-10--10--8--8--12--12--13--13--15--15--13--13--12--12--10--10------
D|-------------------------------------------------------------------
A|-8---8---6--6--10--10--11--11--13--13--11--11--10--10--8---8-------
D|-------------------------------------------------------------------
Repeat once.
On second time, play each chord double the amount of times.

Final Verse
Medium Distortion
"All the world I've seen before me passing by..."
E|-------------------------------------------------------------------
B|-------------------------------------------------------------------
G|-------------------------------------------------------------------
D|-3--3--1--1--5--5--6--6--8--8--6--6--5--5--3--3--------------------
A|-3--3--1--1--5--5--6--6--8--8--6--6--5--5--3--3--------------------
D|-3--3--1--1--5--5--6--6--8--8--6--6--5--5--3--3--------------------


Song Setup/Lyrics:
Intro/Verse 1
Chorus
Verse 2
Chorus
Bridge
Solo
Verse 3
Chorus
Bridge/End


(Intro/Verse 1)
Hey you, see me
Pictures, crazy
All the world I've seen before me
Passing by
I've got nothing
To gain, to lose
All the world I've seen before me
Passing by
(Chorus)
You don't care 'bout how I feel
I don't feel it anymore
You don't care 'bout how I feel
I don't feel it anymore
You don't care 'bout how I feel
I don't feel it anymore
You don't care 'bout how I feel
I don't feel it anymore
(Verse 2)
Hey you, ugly
Not so pretty
All the world I've seen before me
Passing by
Silent, my voice
I've got no choice
All the world I've seen before me
Passing by
(Chorus)
You don't care 'bout how I feel
I don't feel it anymore
You don't care 'bout how I feel
I don't feel it anymore
You don't care 'bout how I feel
I don't feel it anymore
You don't care 'bout how I feel
I don't feel it anymore
(Bridge)
ANYMORE!
I don't see
ANYMORE!
I don't hear
ANYMORE!
I don't stink
ANYMORE!
I don't feel
(Solo)
(Verse 3)
Hey you, see me
Pictures, crazy
All the world I've seen before me
Passing by
I've got nothing
To gain, to lose
All the world I've seen before me
Passing by
(Chorus)
You don't care 'bout how I feel
I don't feel it anymore
You don't care 'bout how I feel
I don't feel it anymore
You don't care 'bout how I feel
I don't feel it anymore
You don't care 'bout how I feel
I don't feel it anymore
(Bridge/End)
ANYMORE!
I don't sleep
ANYMORE!
I don't eat
ANYMORE!
I don't live
ANYMORE!
I don't feel


Comments:
This song is what makes System of a Down a GOOD nu-metal or hard
rock band in this day and age. To actually have a good voice these
days is a rare thing, and to scream at the same time... that's
talent. :) Anyways, this song is pretty simple guitar wise but it
does have an awesome intro/verse riff. Enjoy! If you have any questions,
comments, love letters, death threats or anything of the sort, don't
hesitate to contact me using one of the methods listed above. :P
Thank you, drive through...
Dirk Lithium (:07- 24 -01:)
		   
AcordesyTabs.com © 2008 Acordes y Tablaturas para guitarra. Tabs and Chords for guitar. Aviso Legal - Contacto
El uso de este sitio está sujeto a la aceptación de los términos y condiciones (30 usuarios online)