tablaturas, partituras y acordes para guitarra
Busca por banda/artista:
 
y/o título de la canción:
A B C D E F G H I J K L M N O P Q R S T U V W X Y Z 0 1 2 3 4 5 6 7 8 9 / Top 100 tabs
Categorías
Usuarios
usuario:
Darse de alta
password:
Artistas más visitados
Publicidad
TOP acordes y tablaturas de System Of A Down


Boom
de System Of A Down
Puntúa este acorde/tab:      
(0.2/5)
Reportar este acorde/tab
  Añadir a tus favoritos
  Imprimir
Artist: System of a Down
Song: Boom!
Album: STEAL THIS ALBUM!
Tuning: Drop C (C.G.C.F.A.D)
Tabbed by: Adam Eugenio
Email: xSiMPLiSTiK@hotmail.com
AIM: X SiMPLiSTiK
Website: http://www.SiMPLiSTiK.cjb.net

Any mistakes? Email or IM me with corrections.

A
pm......................................................................
1:-----------------|-----------------|-----------------|-----------------|
2:-----------------|-----------------|-----------------|-----------------|
3:-----------------|-----------------|-----------------|-----------------|
4:---------7-------|---------7-------|---------6-------|---------6-------|
5:-5-7-8-7---8-7-8-|-5-7-8-7---8-7-8-|-4-6-7-6---7-6-7-|-4-6-7-6---7-6-7-|
6:-----------------|-----------------|-----------------|-----------------|

pm..............................................................................
1:------------------------|------------------------|-----------------|----------
2:------------------------|------------------------|-----------------|----------
3:------------------------|------------------------|-----------------|----------
4:------------10----------|------------10----------|---------8-------|---------8
5:-8-10-11-10----11-10-11-|-8-10-11-10----11-10-11-|-6-8-9-8---9-8-9-|-6-8-9-8--
6:------------------------|------------------------|-----------------|----------

pm    .    .     .   .      .    .     .   .      .    .     .   .      .    .  
1:-----------|---------|-----------|---------|-----------|---------|-----------|
2:-10---10---|-9---9---|-10---10---|-9---9---|-10---10---|-9---9---|-10---10---|
3:----7----7-|---7---7-|----7----7-|---7---7-|----7----7-|---7---7-|----7----7-|
4:-----------|---------|-----------|---------|-----------|---------|-----------|
5:-----------|---------|-----------|---------|-----------|---------|-----------|
6:-----------|---------|-----------|---------|-----------|---------|-----------|


1:----------7-8--------|---------7-8--------|---------7-8--------|---------7-8--
2:--10-9-10------------|-10-9-10------------|-10-9-10------------|-10-9-10------
3:--------------10-9-7-|-------------10-9-7-|-------------10-9-7-|-------------1
4:---------------------|--------------------|--------------------|--------------
5:---------------------|--------------------|--------------------|--------------
6:---------------------|--------------------|--------------------|--------------


B
1:---------------|-----------------------------------------------|--------------
2:---------------|-----------------------------------------------|--------------
3:---------------|-----------------------------------------------|--------------
4:-0---0---0---0-|-8--8--7--7--8--8--7--7--8--8--7--7--8--8--7/--|-0---0---0---0
5:-0---0---0---0-|-6--6--5--5--6--6--5--5--6--6--5--5--6--6--5/--|-0---0---0---0
6:-0---0---0---0-|-----------------------------------------------|-0---0---0---0


C
pm....................
1:---------------------|
2:---------------------|
3:---------------------|
4:-0--0--0--0--0--0--0-|
5:-0--0--0--0--0--0--0-|
6:-0--0--0--0--0--0--0-|


D
1:--------------------------------------------|
2:--------------------------------------------|
3:------9---8----9--11--12--------------------|
4:-0----7---6----7--9---10----3---2--2-2-2--2-|
5:-0----7---6----7--9---10----3---2--2-2-2--2-|
6:-0----7---6----7--9---10----3---2--2-2-2--2-|

1:-------------------------------------------|
2:-------------------------------------------|
3:------9---8----9--11--12-------------------|
4:-0----7---6----7--9---10----3---2--2--2--2-|
5:-0----7---6----7--9---10----3---2--2--2--2-|
6:-0----7---6----7--9---10----3---2--2--2--2-|


E
pm.......................
1:------------------------|---------------------|
2:------------------------|---------------------|
3:------------------------|---------------------|
4:-0--0--0--0--0--0--0--0-|-1--1--0--0--1--1--0-|
5:-0--0--0--0--0--0--0--0-|-1--1--0--0--1--1--0-|
6:-0--0--0--0--0--0--0--0-|-1--1--0--0--1--1--0-|


ORDER:
=====

Bass-Intro
A
B
A
B
C
D
B
E

		   
AcordesyTabs.com © 2008 Acordes y Tablaturas para guitarra. Tabs and Chords for guitar. Aviso Legal - Contacto
El uso de este sitio está sujeto a la aceptación de los términos y condiciones (26 usuarios online)