tablaturas, partituras y acordes para guitarra
Busca por banda/artista:
 
y/o título de la canción:
A B C D E F G H I J K L M N O P Q R S T U V W X Y Z 0 1 2 3 4 5 6 7 8 9 / Top 100 tabs
Categorías
Usuarios
usuario:
Darse de alta
password:
Artistas más visitados
Publicidad
TOP acordes y tablaturas de System Of A Down


Bubbles
de System Of A Down
Puntúa este acorde/tab:      
(0.4/5)
Reportar este acorde/tab
  Añadir a tus favoritos
  Imprimir
-=Bubbles=-System of a down
===========
tabs by Javier Rodríguez
(C-G-C-F-A-D)

A
pm........
1:---------|------------------------------------|-------------------------------
2:---------|------------------------------------|-------------------------------
3:---------|------------------------------------|-------------------------------
4:-6-6-6-6-|-3-5-5-5--3-5-5-5--3-5-5-5--3-5-5-5-|-3-5-5-5--3-5-5-5--3-5-5-5--6-6
5:-6-6-6-6-|-3-5-5-5--3-5-5-5--3-5-5-5--3-5-5-5-|-3-5-5-5--3-5-5-5--3-5-5-5--6-6
6:-6-6-6-6-|-3-5-5-5--3-5-5-5--3-5-5-5--3-5-5-5-|-3-5-5-5--3-5-5-5--3-5-5-5--6-6
                                                                   pm.....
1:------------------------------------|------------------------------------|
2:------------------------------------|------------------------------------|
3:------------------------------------|------------------------------------|
4:-3-5-5-5--3-5-5-5--3-5-5-5--3-5-5-5-|-3-5-5-5--3-5-5-5--3-5-5-5--6-6-6-6-|
5:-3-5-5-5--3-5-5-5--3-5-5-5--3-5-5-5-|-3-5-5-5--3-5-5-5--3-5-5-5--6-6-6-6-|
6:-3-5-5-5--3-5-5-5--3-5-5-5--3-5-5-5-|-3-5-5-5--3-5-5-5--3-5-5-5--6-6-6-6-|


B
pm.............................
1:------------------------------|
2:------------------------------|
3:------------------------------|
4:-3-5---5-3--5---3-5---5-6-6-6-|
5:-3-5---5-3--5---3-5---5-6-6-6-|
6:-3-5---5-3--5---3-5---5-6-6-6-|


C
1:-----------------------|---------------------------|
2:-----------------------|---------------------------|
3:-55-77-88-77-55-444444-|-55-77-88-77-1010-88-77-88-|
4:-----------------------|---------------------------|
5:-----------------------|---------------------------|
6:-----------------------|---------------------------|


D
1:------------------------------------|
2:------------------------------------|
3:------------------------------------|
4:-3-5-5-5--3-5-5-5--3-5-5-5--6-6-6-6-|
5:-3-5-5-5--3-5-5-5--3-5-5-5--6-6-6-6-|
6:-3-5-5-5--3-5-5-5--3-5-5-5--6-6-6-6-|


E
1:-----------------------------|
2:-----------------------------|
3:-----------------------------|
4:-----------------------------|
5:-----------------------------|
6:-3-5--5-3--5---3-5---5-6-6-6-|


F
1:---|
2:---|
3:---|
4:-5-|
5:-5-|
6:-5-|


G
1:------------|
2:------------|
3:------------|
4:------------|
5:------------|
6:-3-8--5-6-5-|


H
pm..........................
1:---------------------------|
2:---------------------------|
3:-55-77-88-77-1010-88-77-88-|
4:---------------------------|
5:---------------------------|
6:---------------------------|


I
1:-----------------------------|
2:-----------------------------|
3:-----------------------------|
4:-----------------------6-6-6-|
5:-----------------------6-6-6-|
6:-3-5--5-3--5---3-5---5-6-6-6-|



ORDER:
=====

A
B 2x
C 4x
D 2x
B 2x
C 6x
D 2x
B 2x
E 2x
F 4x
G 7x
H
G 7x
H
D 4x
B 2x
E
I
		   
AcordesyTabs.com © 2008 Acordes y Tablaturas para guitarra. Tabs and Chords for guitar. Aviso Legal - Contacto
El uso de este sitio está sujeto a la aceptación de los términos y condiciones (7 usuarios online)