tablaturas, partituras y acordes para guitarra
Busca por banda/artista:
 
y/o título de la canción:
A B C D E F G H I J K L M N O P Q R S T U V W X Y Z 0 1 2 3 4 5 6 7 8 9 / Top 100 tabs
Categorías
Usuarios
usuario:
Darse de alta
password:
Artistas más visitados
Publicidad
TOP acordes y tablaturas de System Of A Down


Estás en: Inicio > Letra S > Acordes y tablaturas de System Of A Down > Chop Suey Correct
Chop Suey Correct
de System Of A Down
Puntúa este acorde/tab:      
(0.5/5)
Reportar este acorde/tab
  Añadir a tus favoritos
  Imprimir
System Of A Down - Chop Suey!
#6 Toxicity

BenTheDude
ben_thedude@hotmail.com

Tuning : DADGBE
(E chord down to D)


Intro
E----------------------------------------------------------------
B----------------------------------------------------------------
G----------------------------------------------------------------
D---8--8--8--8--8--8--8--8--8--8~10-10-10-10-10-10-10-10-10------
A--10-10-10-10-10-10-10-10-10-10~12-12-12-12-12-12-12-12-12------
D----------------------------------------------------------------

E----------------------------------------------------------------
B----------------------------------------------------------------
G----------------------------------------------------------------
D--7-7-7-7-7-7-7-7-7-5-5-5-5-5-5-5-5-5---------------------------
A--8-8-8-8-8-8-8-8-8-6-6-6-6-6-6-6-6-6---------------------------
D----------------------------------------------------------------


E-----------------------------------
B-----------------------------------
G-----------------------------------
D-8--8--8---10-10-10--7-7-7--5-5-5--
A--10-10-10--12-12-12--8-8-8--6-6-6-
D-----------------------------------


e-66666666-8--8--8--8--8--8--8--8--55555555-10-10-10-10-10-10-10-10-
B-88888888-10-10-10-10-10-10-10-10-66666666-11-11-11-11-11-11-11-11-
G-------------------------------------------------------------------
D-------------------------------------------------------------------
A-------------------------------------------------------------------
D-------------------------------------------------------------------

e-10-10-10-10-10-10-10-10-11-11-11-11-11-11-11-11-8--8--8--8--8--8--8--8--
B-11-11-11-11-11-11-11-11-13-13-13-13-13-13-13-13-10-10-10-10-10-10-10-10-
G-------------------------------------------------------------------------
D-------------------------------------------------------------------------
A-------------------------------------------------------------------------
D-------------------------------------------------------------------------

e-11-11-11-11-11-11-11-11-
B-13-13-13-13-13-13-13-13-
G-------------------------
D-------------------------
A-------------------------
D-------------------------

Verse & Chorus 
E-----------------------------------------------------
B-----------------------------------------------------
G-----------------------------------------------------
D-5--5--5--5--4--4--4--4--7--7--7--7--10--10--10--10--
A-5--5--5--5--4--4--4--4--7--7--7--7--10--10--10--10--
D-5--5--5--5--4--4--4--4--7--7--7--7--10--10--10--10--

End 
E-----------------------------------------------------
B-----------------------------------------------------
G-------8--8---------8--8-----------------------------
D-5--5--8--8---8--8--8--8--(let ring each note)-------
A-5--5--6--6---8--8--6--6-----------------------------
D-5--5---------8--8-----------------------------------

e--------------------------
B--------------------------
G-8-8-8-8-8----------------
D-8-8-8-8-8-5--------------
A-6-6-6-6-6-5-(let ring)---
D-----------5--------------


hf, Ben.
		   
AcordesyTabs.com © 2008 Acordes y Tablaturas para guitarra. Tabs and Chords for guitar. Aviso Legal - Contacto
El uso de este sitio está sujeto a la aceptación de los términos y condiciones (28 usuarios online)