tablaturas, partituras y acordes para guitarra
Busca por banda/artista:
 
y/o título de la canción:
A B C D E F G H I J K L M N O P Q R S T U V W X Y Z 0 1 2 3 4 5 6 7 8 9 / Top 100 tabs
Categorías
Usuarios
usuario:
Darse de alta
password:
Artistas más visitados
Publicidad
TOP acordes y tablaturas de System Of A Down


Ego Brain
de System Of A Down
Puntúa este acorde/tab:      
(0.2/5)
Reportar este acorde/tab
  Añadir a tus favoritos
  Imprimir
-=Ego Brain=-System of a down
=============
tabs by Javier Rodríguez
(C-G-C-F-A-D)

A
  2x:                           1x:                       1x:
1:-----0-2^3^2-0-------------|-----0-2^3^2-0-----5-------|-------15-------15----
2:---0-----------------------|---0-------------3-----3---|----15-------15-------
3:-------------------4-----4-|---------------------4---4-|-12-------12---------7
4:-2---------------2-----2---|-2-------------0-----------|-------------------5--
5:---------------0-----0-----|---------------------------|----------------------
6:---------------------------|---------------------------|----------------------


B
1:-----0-2^3^2-0-------------|-----0-2^3^2-0---------|--------------------------
2:---0-----------------------|---0-------------------|--------------------------
3:-------------------4-----4-|-----------------------|--------------------------
4:-2---------------2-----2---|-2-------------5--7--9-|-3---3---3---3---2---2---2
5:---------------0-----0-----|---------------5--7--9-|-3---3---3---3---2---2---2
6:---------------------------|---------------5--7--9-|-3---3---3---3---2---2---2

1:--------------------------------|
2:--------------------------------|
3:--------------------------------|
4:-3---3---5--7--9--2---2---2---2-|
5:-3---3---5--7--9--2---2---2---2-|
6:-3---3---5--7--9--2---2---2---2-|


C
1:-------------------|-------------------|----------------------------|---------
2:-------------------|-------------------|----------------------------|---------
3:-------------------|-------------------|----------------------------|---------
4:-2--2b3r2----------|-2--2b3r2----------|-3--3-5-3-5/7-5-3-5-3^5^3/2-|-2--2b3r2
5:-2--------3--2b3r2-|-2--------3--2b3r2-|-3--------------------------|-2-------
6:-2-----------------|-2-----------------|-3--------------------------|-2-------


D
1:-3-|
2:-5-|
3:-4-|
4:-2-|
5:---|
6:---|


ORDER:
=====

A 3x
B
C 2x
A
B
C 2x
A 2x
B
C 2x
A
D
		   
AcordesyTabs.com © 2008 Acordes y Tablaturas para guitarra. Tabs and Chords for guitar. Aviso Legal - Contacto
El uso de este sitio está sujeto a la aceptación de los términos y condiciones (15 usuarios online)