tablaturas, partituras y acordes para guitarra
Busca por banda/artista:
 
y/o título de la canción:
A B C D E F G H I J K L M N O P Q R S T U V W X Y Z 0 1 2 3 4 5 6 7 8 9 / Top 100 tabs
Categorías
Usuarios
usuario:
Darse de alta
password:
Artistas más visitados
Publicidad
TOP acordes y tablaturas de System Of A Down


Jet Pilot
de System Of A Down
Puntúa este acorde/tab:      
(0.3/5)
Reportar este acorde/tab
  Añadir a tus favoritos
  Imprimir
The other tab of this song is all wacked out and this is the real version.
I wasted my money on the book you can buy for $20.00 so i decided to
tab this song 100% correctly just for your playing pleasure enjoy


drop d tuning

       
D-------------------------------------------------------------------------------
A-------------------------------------------------------------------------------
F-------------------------------------------------------------------------------
C-------------------8----------------------8-------------------8----------------
G-0--0--0-----0--0--6----0--0--0-----0--0--6-0--0--0-----0--0--6-0--0--0-----0--
C-0--0--0-3/7-0--0-------0--0--0-3/7-0--0----0--0--0-3/7-0--0----0--0--0-3/7-0--



D-------------------------------------------------------------------------------
A-------------------------------------------------------------------------------
F-------------------------------------------------------------------------------
C-------------------------------------------------------------------------------
G-0--0--0-------0--0-------0--0-------0--0-------0--0-------0--0-------0--0-----
C-0--0--0--3/7--0--0--3/7--0--0--3/7--0--0--3/7--0--0--3/7--0--0--3/7--0--0--3/7


D---------------------------------------------
A---------------------------------------------
F---------------------------------------------
C----------3--2--0--2--0/2/0------------------
G-----0--------------------------3---1--------
C-3/------------------------------------------

           
D-------------------------------------------------------------------------------
A-------------------------------------------------------------------------------
F-------------------------------------------------------------------------------
C-------------------------------------------------------------------------------
G-7--8--7--8--7--5----7--8--7--8--7--5----7--8--7--8--7--5----7--8--7--8--7--5--
C-7--8--7--8--7--5----7--8--7--8--7--5----7--8--7--8--7--5----7--8--7--8--7--5--


D-------------------------------------------------------------------------------
A-------------------------------------------------------------------------------
F-------------------------------------------------------------------------------
C-------------------------------------------------------------------------------
G-7--8--7--8--7--5--5--5--7---7--8--7--8--7--5--5--5--7---7--8--7--8--7--5--5--5
C-7--8--7--8--7--5--5--5--7---7--8--7--8--7--5--5--5--7---7--8--7--8--7--5--5--5


D-------------------------------------------------------------------------------
A-------------------------------------------------------------------------------
F-------------------------------------------------------------------------------
C-------------------------------------------------------------------------------
G-7--8--7--8--7--5--5--5--7---7--8--7--8--7--5--5--5--7---7--8--7--8--7--5--5--5
C-7--8--7--8--7--5--5--5--7---7--8--7--8--7--5--5--5--7---7--8--7--8--7--5--5--5



D-------------------------------------------------------------------------------
A-------------------------------------------------------------------------------
F-------------------------------------------------------------------------------
C-------------------8----------------------8-------------------8----------------
G-0--0--0-----0--0--6----0--0--0-----0--0--6-0--0--0-----0--0--6-0--0--0-----0--
C-0--0--0-3/7-0--0-------0--0--0-3/7-0--0----0--0--0-3/7-0--0----0--0--0-3/7-0--

         
D---------------------------------------------
A---------------------------------------------
F---------------------------------------------
C----------3--2--0--2--0/2/0------------------
G-----0--------------------------3---1--------
C-3/------------------------------------------

           
D-------------------------------------------------------------------------------
A-------------------------------------------------------------------------------
F-------------------------------------------------------------------------------
C-------------------------------------------------------------------------------
G-7--8--7--8--7--5----7--8--7--8--7--5----7--8--7--8--7--5----7--8--7--8--7--5--
C-7--8--7--8--7--5----7--8--7--8--7--5----7--8--7--8--7--5----7--8--7--8--7--5--


D-------------------------------------------------------------------------------
A-------------------------------------------------------------------------------
F-------------------------------------------------------------------------------
C-------------------------------------------------------------------------------
G-7--8--7--8--7--5--5--5--7---7--8--7--8--7--5--5--5--7---7--8--7--8--7--5--5--5
C-7--8--7--8--7--5--5--5--7---7--8--7--8--7--5--5--5--7---7--8--7--8--7--5--5--5


D-------------------------------------------------------------------------------
A-------------------------------------------------------------------------------
F-------------------------------------------------------------------------------
C-------------------------------------------------------------------------------
G-7--8--7--8--7--5--5--5--7---7--8--7--8--7--5--5--5--7---7--8--7--8--7--5--5--5
C-7--8--7--8--7--5--5--5--7---7--8--7--8--7--5--5--5--7---7--8--7--8--7--5--5--5



D-------------------------------------------------------------------------------
A-------------------------------------------------------------------------------
F-------------------------------------------------------------------------------
C-------------------------------------------------------------------------------
G-0--0--0-------0--0-------0--0-------0--0-------0--0-------0--0-------0--0-----
C-0--0--0--3/7--0--0--3/7--0--0--3/7--0--0--3/7--0--0--3/7--0--0--3/7--0--0--3/7





D-------------------------------------------------------------------------------
A---------------------------------------------6--5----------5---------------6--5
F-----------------2--3--2--5--3--7--5--8--7----------7--5--------7--5-----------
C---------3--5-----------------------------------------------------------6------
G-0/10--------------------------------------------------------------------------


D-------------------------------------------------------------------------------
A-------------------------------------------------------------------------------
F-------------------------------------------------------------------------------
C-------------------------------------------------------------------------------
G-0--0--0-------0--0-------0--0-------0--0-------0--0-------0--0-------0--0-----
C-0--0--0--3/7--0--0--3/7--0--0--3/7--0--0--3/7--0--0--3/7--0--0--3/7--0--0--3/7

                                           the end


      
		   
AcordesyTabs.com © 2008 Acordes y Tablaturas para guitarra. Tabs and Chords for guitar. Aviso Legal - Contacto
El uso de este sitio está sujeto a la aceptación de los términos y condiciones (35 usuarios online)