tablaturas, partituras y acordes para guitarra
Busca por banda/artista:
 
y/o título de la canción:
A B C D E F G H I J K L M N O P Q R S T U V W X Y Z 0 1 2 3 4 5 6 7 8 9 / Top 100 tabs
Categorías
Usuarios
usuario:
Darse de alta
password:
Artistas más visitados
Publicidad
TOP acordes y tablaturas de System Of A Down


Know
de System Of A Down
Puntúa este acorde/tab:      
(0.4/5)
Reportar este acorde/tab
  Añadir a tus favoritos
  Imprimir
Know
Dropped D, down 1 whole step
for more tabs: go.to/tab_zone

Intro       
D:--0-0-8-0-0-8-8-:
A:--0-0-8-0-0-8-8-:
D:--0-0-8-0-0-8-8-:

Intro cont'd
D:--0-0-8-0-0-4-4-|
A:--0-0-8-0-0-4-4-|
D:--0-0-8-0-0-4-4-|

Breakdown                     
E:-10-10---10-10-10-|
B:------------------|

Pre-Verse 

D:--0-0--0-0-3-|
A:--0-0--0-0-3-|
D:--0-0--0-0-3-|

verse
A:-12-12--12-12-15-|
D:-12-12--12-12-15-|

chorus                       (omit muted strings 3rd time)
D:---------------------x-x-x-xx-|
A:--0--2--3--3--0-2-3--x-x-x-xx-|
D:--0--2--3--3--0-2-3--x-x-x-xx-|

breakdown pt.1
D:-x-x-x-xx-|
A:-x-x-x-xx-|
D:-x-x-x-xx-|

breakdown pt. 2

D:-0-0--0-0-0-|
A:-0-0--0-0-0-|
D:-0-0--0-0-0-|

interlude pt. 1  

let ring throughout

D:-7----10--|
A:-5----8---|
D:-0--------|

interlude pt. 2
                                     4x                                  4x
D:0-0-0--0-0-00--0-0-3-3-3--3-3-33-33-|------------------------------------|
A:------------------------------------|0-0-0--0-0-00--0-0-3-3-3--3-3-33-33-|
D:------------------------------------|0-0-0--0-0-00--0-0-3-3-3--3-3-33-33-|

		   
AcordesyTabs.com © 2008 Acordes y Tablaturas para guitarra. Tabs and Chords for guitar. Aviso Legal - Contacto
El uso de este sitio está sujeto a la aceptación de los términos y condiciones (32 usuarios online)