tablaturas, partituras y acordes para guitarra
Busca por banda/artista:
 
y/o título de la canción:
A B C D E F G H I J K L M N O P Q R S T U V W X Y Z 0 1 2 3 4 5 6 7 8 9 / Top 100 tabs
Categorías
Usuarios
usuario:
Darse de alta
password:
Artistas más visitados
Publicidad
TOP acordes y tablaturas de System Of A Down


Nuguns
de System Of A Down
Puntúa este acorde/tab:      
(0.3/5)
Reportar este acorde/tab
  Añadir a tus favoritos
  Imprimir
-=Nüguns=-Syatem of a down
==========
tabs by Javier Rodríguez
(C-G-C-F-A-D)

A
1:-------------|
2:-------------|
3:-------------|
4:-7--8--10--8-|
5:-7--8--10--8-|
6:-7--8--10--8-|


B
3x:                              1x:
1:------------------------------|-------------|
2:------------------------------|-------------|
3:------------------------------|-------------|
4:------------------------------|-7--8--10--8-|
5:------------------------------|-7--8--10--8-|
6:-7-7-0-0-8-8-0-0-10-10-0-0-8--|-7--8--10--8-|


C
2x:                              1x:                                 1x:
1:------------------------------|-----------------------------------|-----------
2:------------------------------|-----------------------------------|-----------
3:------------------------------|-----------------------------------|-----------
4:------------------------------|-----------------------------------|-7--8--10--
5:------------------------------|-----------------------------------|-7--8--10--
6:-7-0-8-0-10-0-8-0-7-0-8-0-10--|-7-0-8-0-10-0-8-0-7-0-8-0-10-0-8-0-|-7--8--10--


D
1:---------10----10----|
2:------------10----10-|
3:-7---7---------------|
4:---7---7-------------|
5:---------------------|
6:---------------------|


E
1:------------------------------|
2:------------------------------|
3:-------7--7-7--7-7----7-7-7-7-|
4:------------------------------|
5:-6--6--------------6----------|
6:------------------------------|


F
1:------------------|
2:------------------|
3:------------------|
4:---------------h5-|
5:------h5----------|
6:-0-0------0-0-----|


G
1:--------------------------|
2:--------------------------|
3:--------------------------|
4:-0--0--0/12----0--0--12/0-|
5:-0--0--0/12----0--0--12/0-|
6:-0--0--0/12----0--0--12/0-|


H
1:-------------|
2:-------------|
3:-------------|
4:-------------|
5:-------------|
6:-7--8--10--8-|


I
3x:                                   1x:
1:-----------------------------------|-------------|
2:-----------------------------------|-------------|
3:-----------------------------------|-------------|
4:-----------------------------------|-7--8--10--8-|
5:-----------------------------------|-7--8--10--8-|
6:-7-0-8-0-10-0-8-0-7-0-8-0-10-0-8-0-|-7--8--10--8-|


J
                             pm.
1:--------10--------------10-----|
2:------------10-----------------|
3:-7---------------7-------------|
4:----7---------------7------0-0-|
5:---------------------------0-0-|
6:---------------------------0-0-|


ORDER:
=====

A 3x
B
C
D
E 3x
F 2x
E 3x
D
A
B
C
D
E 3x
F 2x
E 3x
D
A
B
C
D 2x
G 7x
H
G 3x
H
G 3x
A
B
C
B
I
D
J
		   
AcordesyTabs.com © 2008 Acordes y Tablaturas para guitarra. Tabs and Chords for guitar. Aviso Legal - Contacto
El uso de este sitio está sujeto a la aceptación de los términos y condiciones (27 usuarios online)