tablaturas, partituras y acordes para guitarra
Busca por banda/artista:
 
y/o título de la canción:
A B C D E F G H I J K L M N O P Q R S T U V W X Y Z 0 1 2 3 4 5 6 7 8 9 / Top 100 tabs
Categorías
Usuarios
usuario:
Darse de alta
password:
Artistas más visitados
Publicidad
TOP acordes y tablaturas de System Of A Down


Peephole
de System Of A Down
Puntúa este acorde/tab:      
(0.2/5)
Reportar este acorde/tab
  Añadir a tus favoritos
  Imprimir
Band name: System of a down
Song name: Peephole


This is my first tab but I think its almost perfect email me if u think its wron

INTRO

D-------------------------------------------------------------------
A----3---3---3---3---3---3---3---3---3---3---3---3---3---3---3---3--
F---3---3---3---3---3---3---3---3---3---3---3---3---3---3---3---3---
C-5---5------------------------------5---5--------------------------
G----------4---5---0---0---4---5------------4---5---0---4---5------5
C------------------------------------------------------------------5

D------------ D-----------------
A---3-3-----  A----------------- 
F---3-3-----  F-----------------
C------------ C----444444777777-
G------------ G----444444777777-                                                

PRE-CHORUS    11=ELEVENTH FRET NOT FIRST

D---------------------------------------------
A---------------------------------------------
F---------------------------------------------
C--555555—-111111111111 121212121212---777777-
G---------------------------------------------
C---------------------------------------------

D---------------------------------------------
A---------------------------------------------
F---------------------------~~~~~~~~~~~~------
C—111111111111 121212121212—151515161718------
G----------------------------BEND-------------                                  
CHORUS-EACH CHORD X6                   ON 2ND CHORUS REPEAT, ON 3RD  GO IN 2 SOL

D----------------------------------------------------              
A----------------------------------------------------
F----------------------------------------------------
C---5--------11-----12----7--11----12----3-----1-----                           
C---5--------11-----12----7--11----12----3-----1-----


SOLO- THEN SAME BUT UP STARTING ON THE 15TH FRET, 5TH STRING
X= RANDOM PLAYINGS
D----------------------------------------------------
A------------------3~~~~1-3—3~~~~1-3—3~~~~ 1 31------
F-----------------------------------------------320-- +END OF INTRO
C--3--1----------------------------------------------POWER 
G--3--1----------------------------------------------CHORDS
C--3--1----------------------------------------------
PM……>

D---------------------------------------------8--10--8----6--8--6--
A--15---14---14-----------15---14----------------------------------
F--12----11-----------------12---11---------10-----------8--------- LISTEN 4
C--------------11-------------------------------------------------- RYTHYM
G-----------BEND UP------------------------------------------------
C------------------------------------------------------------------

D-----------------------XXXXXXX----------
A--15---14----14-------XXXXXXX--------14-
F--12----11--------------XXXXXXXX-----11-                                       
C----------------------------------------

LAST CHORUS

D-----------------------------------------------------
A-----------------------------------------------------
F-----------------------------------------------------
C----5---11--12---7--11---12----5---11-12—(7--11--12--
G----5---11--12---7--11---12----5---11-12—(7--11--12--
C----5---11--12---7--11---12----5---11-12—(7--11--12--
                                          PM………>
D-------------------------------------------------------
A----------------------------------------------------8--
F----------------------------------------------------7--
C---5----11--12---7--11--12--5--11--12---7--11--12---5--
G---5----11--12---7--11--12--5--11--12---7--11--12---5--
C---5----11--12---7--11--12--5--11--12---7--11--12---5--

THE END….



		   
AcordesyTabs.com © 2008 Acordes y Tablaturas para guitarra. Tabs and Chords for guitar. Aviso Legal - Contacto
El uso de este sitio está sujeto a la aceptación de los términos y condiciones (16 usuarios online)