tablaturas, partituras y acordes para guitarra
Busca por banda/artista:
 
y/o título de la canción:
A B C D E F G H I J K L M N O P Q R S T U V W X Y Z 0 1 2 3 4 5 6 7 8 9 / Top 100 tabs
Categorías
Usuarios
usuario:
Darse de alta
password:
Artistas más visitados
Publicidad
TOP acordes y tablaturas de System Of A Down


Peephole
de System Of A Down
Puntúa este acorde/tab:      
(0.2/5)
Reportar este acorde/tab
  Añadir a tus favoritos
  Imprimir
Song-Peephole
Band-System of a Down
Album-Toxicity
<>=Bend Up

Intro

|-------------------------------------------------------------------------------
|----------3-----------3-----------3----------3---------3---------3----------3--
|------3-----------3------------3-----------3---------3---------3----------3----
|--5-----------5-----------------------------------0---------0------------------
|----------------------------4-----------5------------------------------4-------
|-------------------------------------------------------------------------------


Verse

|----------------------------------------------------------------|
|--3--3----3--3----3--3----3--3----3--3----3--3----3--3----3--3--|
|--3--3----3--3----3--3----3--3----3--3----3--3----3--3----3--3--|
|----------------------------------------------------------------|
|----------------------------------------------------------------|
|----------------------------------------------------------------|

|-------------------------------------------------------------------------------
|-------------------------------------------------------------------------------
|-------------------------------------------------------------------------------
|-------------------------------------------------------------------------------
|--4--4----4--4----4--4----4--4----4--4----4--4----7--7----7--7----7--7----7--7-
|--4--4----4--4----4--4----4--4----4--4----4--4----7--7----7--7----7--7----7--7-


Pre-Chorus

|--------------9-9-9-10-10-10-------------------9-9-9-10-10-10-------------9-9-9
|--8-8-8-8-8-8----------------10-10-10-10-10-10----------------8-8-8-8-8-8------
|-------------------------------------------------------------------------------
|-------------------------------------------------------------------------------
|-------------------------------------------------------------------------------
|-------------------------------------------------------------------------------


Chorus

|------------------------------------|
|------------------------------------|
|------------------------------------|
|------------------------------------|
|--5--5----11--12----7--7----11--12--|
|--5--5----11--12----7--7----11--12--|


Interlude

|-----------------|
|-----------------|
|-----------------|
|-----------------|
|--4-4-4-4-4-4-7--|
|--4-4-4-4-4-4-7--|


Guitar Solo

|-------------------------------------------------------------------------------
|--3--4--3/4/3--1--3----3--4--3/4/3--1--3----3--4--3/4/3--1--3------------------
|--------------------------------------------------------------5--3--2--3--2/3/2
|-------------------------------------------------------------------------------
|-------------------------------------------------------------------------------
|-------------------------------------------------------------------------------

|----------------------------|
|----------------------------|
|----------------------------|
|--4-4-4-4-4-4--7-7-7-7-7-7--|
|--4-4-4-4-4-4--7-7-7-7-7-7--|
|--4-4-4-4-4-4--7-7-7-7-7-7--|

|-------------------------------------------------------------------------------
|--10--11--10/11/10--8--10----10--11--10/11/10--8--10----10--11--10/11/10--8--10
|-------------------------------------------------------------------------------
|-------------------------------------------------------------------------------
|-------------------------------------------------------------------------------
|-------------------------------------------------------------------------------


Interlude 2

|------10-10-10-10-------9-9-9-9---9-<9>-9-9-9-9--|
|--8----8--8--8--8----7--7-7-7-7------------------|
|-------------------------------------------------|
|-------------------------------------------------|
|-------------------------------------------------|
|-------------------------------------------------|

|------10-10-10-10-------9-9-9-9-----8-10-8-----6-8-6--|
|--8----8--8--8--8----7--7-7-7-7---6----------4--------|
|------------------------------------------------------|
|------------------------------------------------------|
|------------------------------------------------------|
|------------------------------------------------------|

|------10-10-10-10-------9-9-9-9----9-9-9-9-9-9-9-9-9--|
|--8----8--8--8--8----7--7-7-7-7-----------------------|
|------------------------------------------------------|
|------------------------------------------------------|
|------------------------------------------------------|
|------------------------------------------------------|

		   
AcordesyTabs.com © 2008 Acordes y Tablaturas para guitarra. Tabs and Chords for guitar. Aviso Legal - Contacto
El uso de este sitio está sujeto a la aceptación de los términos y condiciones (25 usuarios online)