tablaturas, partituras y acordes para guitarra
Busca por banda/artista:
 
y/o título de la canción:
A B C D E F G H I J K L M N O P Q R S T U V W X Y Z 0 1 2 3 4 5 6 7 8 9 / Top 100 tabs
Categorías
Usuarios
usuario:
Darse de alta
password:
Artistas más visitados
Publicidad
TOP acordes y tablaturas de System Of A Down


Roulette Solo
de System Of A Down
Puntúa este acorde/tab:      
(0.3/5)
Reportar este acorde/tab
  Añadir a tus favoritos
  Imprimir
Roulette- System of a Down
**If your gonna play system of a down at least tune your guitar
the way its supposed to be CDCFAD or if your too lazy at least 
DADGBE, System isnt supposed to be played in normal tuning**

roulette2.tab is the best tab for this song, however the solo if a little off
so i corrected it

Guitar 1
|--------------------------------------------------------|
|---6-----6-------10-----5-------8-----8-----3-------5---| x4
|--------------------------------------------------------|
|--------------------------------------------------------|
|-5---5-5---5-5/8----0-3---3-3/6---6-6---0-1---1-1/3---3-|
|--------------------------------------------------------|

Guitar 2
|-10----10-12-13-----12-13-15---12-13-15-13-12-10-12-13-12-10-10--------|
|-----------------------------------------------------------------10-10-|
|-----------------------------------------------------------------------|
|-----------------------------------------------------------------------|
|-----------------------------------------------------------------------|
|-----------------------------------------------------------------------|

|-------------------------------------------------6-65-53-31-1-|
|-10-11-13-11--10--8--10--11--10----8-8-----------8-86-65-53-3-|
|-----------------------------------------5-5---------------------|
|-----------------------------------------------------------------|
|-----------------------------------------------------------------|
|-----------------------------------------------------------------|x2
		   
AcordesyTabs.com © 2008 Acordes y Tablaturas para guitarra. Tabs and Chords for guitar. Aviso Legal - Contacto
El uso de este sitio está sujeto a la aceptación de los términos y condiciones (15 usuarios online)