tablaturas, partituras y acordes para guitarra
Busca por banda/artista:
 
y/o título de la canción:
A B C D E F G H I J K L M N O P Q R S T U V W X Y Z 0 1 2 3 4 5 6 7 8 9 / Top 100 tabs
Categorías
Usuarios
usuario:
Darse de alta
password:
Artistas más visitados
Publicidad
TOP acordes y tablaturas de System Of A Down


Estás en: Inicio > Letra S > Acordes y tablaturas de System Of A Down > Roulette Standard Tuning
Roulette Standard Tuning
de System Of A Down
Puntúa este acorde/tab:      
(0.5/5)
Reportar este acorde/tab
  Añadir a tus favoritos
  Imprimir
Here it is in E tuning insted of pesky drop c



E/------------------------------------------------------------------------------
B/------4----------4---------------8--------------3----------------6------------
G/------------------------------------------------------------------------------
D/------------------------------------------------------------------------------
A/--3------3--3--------3----6-----------6--1------------1---4----------- 4--4---
e/------------------------------------------------------------------------------


E/------------------------------------------------------------------------------
B/----- 4--------- 4-------- 3------------3--------3------------3---------------
G/------------------------------------------------------------------------5-----
D/------------------------------------------------------------------------------
A/--3------3--3-------2---------2--2--------1---------1--1----------------------
e/--------------------------------------------------------------------4---------
		   
AcordesyTabs.com © 2008 Acordes y Tablaturas para guitarra. Tabs and Chords for guitar. Aviso Legal - Contacto
El uso de este sitio está sujeto a la aceptación de los términos y condiciones (47 usuarios online)