tablaturas, partituras y acordes para guitarra
Busca por banda/artista:
 
y/o título de la canción:
A B C D E F G H I J K L M N O P Q R S T U V W X Y Z 0 1 2 3 4 5 6 7 8 9 / Top 100 tabs
Categorías
Usuarios
usuario:
Darse de alta
password:
Artistas más visitados
Publicidad
TOP acordes y tablaturas de System Of A Down


Rulette
de System Of A Down
Puntúa este acorde/tab:      
(0.5/5)
Reportar este acorde/tab
  Añadir a tus favoritos
  Imprimir
-=Roulette=-sYESTEM OF A DOWN
============
tabs by Javier Rodríguez
(C-G-C-F-A-D)

A
1:-------------------------------|-------------------------------|
2:----6------6---/--10-------5---|-----8------8------3-------5---|
3:-------------------------------|-------------------------------|
4:-------------------------------|-------------------------------|
5:-5----5--5---5-/8-----0-3----3-|/-6----6--6---0-1----1--3----3-|
6:-------------------------------|-------------------------------|


B
1:-----------------------------|------------------------------|
2:----6------6------2------2---|----5------5------3-------5---|
3:-----------------------------|------------------------------|
4:-----------------------------|------------------------------|
5:-5----5--5---5-0----0--0---0-|-3----3--3---0-1----1--3----3-|
6:-----------------------------|------------------------------|


Solo (A is played 4x as accompaniment with a 2nd guitar)

1:-10---10-12-13---12-13-15----12-13-15-13--12/10--12--13--12--10-|
2:----------------------------------------------------------------|
3:----------------------------------------------------------------|
4:----------------------------------------------------------------|
5:----------------------------------------------------------------|
6:----------------------------------------------------------------|

1:-10------------------------------------------------------------5/6/5--5--3--3-
2:------10--10----10-11-13-11--10/8--10--11--10--8--8------------6/8/6--6--5--5-
3:------------------------------------------------------------------------------
4:------------------------------------------------------10--10------------------
5:------------------------------------------------------------------------------
6:------------------------------------------------------------------------------

1:/10---10-12-13---12-13-15----12-13-15-13--12/10--12--13--12--10-|
2:----------------------------------------------------------------|
3:----------------------------------------------------------------|
4:----------------------------------------------------------------|
5:----------------------------------------------------------------|
6:----------------------------------------------------------------|

1:-10------------------------------------------------------------5/6/5--5--3--3-
2:------10--10----10-11-13-11--10/8--10--11--10--8--8------------6/8/6--6--5--5-
3:------------------------------------------------------------------------------
4:------------------------------------------------------10--10------------------
5:------------------------------------------------------------------------------
6:------------------------------------------------------------------------------


C
1:-5-|
2:-6-|
3:-7-|
4:-7-|
5:-5-|
6:---|


ORDER:
=====

A 4x
B 2x
A 4x
B 4x
A 4x (Solo)
B 4x
A 4x
C
		   
AcordesyTabs.com © 2008 Acordes y Tablaturas para guitarra. Tabs and Chords for guitar. Aviso Legal - Contacto
El uso de este sitio está sujeto a la aceptación de los términos y condiciones (30 usuarios online)