tablaturas, partituras y acordes para guitarra
Busca por banda/artista:
 
y/o título de la canción:
A B C D E F G H I J K L M N O P Q R S T U V W X Y Z 0 1 2 3 4 5 6 7 8 9 / Top 100 tabs
Categorías
Usuarios
usuario:
Darse de alta
password:
Artistas más visitados
Publicidad
TOP acordes y tablaturas de System Of A Down


Spiders Intro 1
de System Of A Down
Puntúa este acorde/tab:      
(0.3/5)
Reportar este acorde/tab
  Añadir a tus favoritos
  Imprimir
SYSTEM OF A DOWN - SPIDERS

INTRO

e|------------------------------------------------------------------------------
B|------------------------------------------------------------------------------
G|------------------------------------------------------------------------------
D|------------------------------------------------------------------------------
A|---5---5---3---3---3-----5---5---3---3---3-----6---5---8---6---5-6---5---5---3
D|-0---0---0---0---0---0-0---0---0---0---0---0-0---0---0---0---0-----0---0---0--

e|------------------------------------------------------------------------------
B|------------------------------------------------------------------------------
G|------------------------------------------------------------------------------
D|------------------------------------------------------------------------------
A|---5---5---3---3---3-----5---5---3---3---3-----6---5---8---6---5-6---5---5---3
D|-0---0---0---0---0---0-0---0---0---0---0---0-0---0---0---0---0-----0---0---0--


this is the right way

email me for questions stevenlb28@hotmail.com









		   
AcordesyTabs.com © 2008 Acordes y Tablaturas para guitarra. Tabs and Chords for guitar. Aviso Legal - Contacto
El uso de este sitio está sujeto a la aceptación de los términos y condiciones (23 usuarios online)