tablaturas, partituras y acordes para guitarra
Busca por banda/artista:
 
y/o título de la canción:
A B C D E F G H I J K L M N O P Q R S T U V W X Y Z 0 1 2 3 4 5 6 7 8 9 / Top 100 tabs
Categorías
Usuarios
usuario:
Darse de alta
password:
Artistas más visitados
Publicidad
TOP acordes y tablaturas de System Of A Down


Spiders Intro
de System Of A Down
Puntúa este acorde/tab:      
(0.3/5)
Reportar este acorde/tab
  Añadir a tus favoritos
  Imprimir
Artist : SyStem Of A Down
Song : Spiders

Intro Riff

E |--------------|
B |--------------|
G |--------------|      X2
D |--------------|
A |--5-5-3-3-3-3-|
E |-0-0-0-0-0----| 


E |--------------------------|
B |--------------------------|
G |--------------------------|
D |--------------------------|
A |--6-5-8-6-56---5-6-3-3-3-3|
E |-0-0-0-0-0----0-0-0-0-0---|

E |--------------|
B |--------------|
G |--------------|      X2
D |--------------|
A |--5-5-3-3-3-3-|
E |-0-0-0-0-0----|

E |--------------------------|
B |--------------------------|
G |--------------------------|
D |--------------------------|
A |--6-5-8-6-56---5-6-3-3-3-3|
E |-0-0-0-0-0----0-0-0-0-0---|


Bendertherobot@hotmail.com
		   
AcordesyTabs.com © 2008 Acordes y Tablaturas para guitarra. Tabs and Chords for guitar. Aviso Legal - Contacto
El uso de este sitio está sujeto a la aceptación de los términos y condiciones (37 usuarios online)