tablaturas, partituras y acordes para guitarra
Busca por banda/artista:
 
y/o título de la canción:
A B C D E F G H I J K L M N O P Q R S T U V W X Y Z 0 1 2 3 4 5 6 7 8 9 / Top 100 tabs
Categorías
Usuarios
usuario:
Darse de alta
password:
Artistas más visitados
Publicidad
TOP acordes y tablaturas de System Of A Down


Streamline
de System Of A Down
Puntúa este acorde/tab:      
(0.3/5)
Reportar este acorde/tab
  Añadir a tus favoritos
  Imprimir
System of a down
Streamline
Submited by Ben Misikin this is my first submission sorry if its a little bad. t
know its not perfect but its close and i was board so i figured it do this. if y
me back my e-mail is: ben_jamin_misikin@hotmail.com. thanks awsom song later.
 (solo) repeat                                                    (palm mute)   
-------------------------------------12-9-7-10-8-7-------|-------------12-9-7-10
---15---10---17---10---18--10----------------------------|---18---10------------
---------------------------------------------------------|----------------------
---------------------------------------------------------|----------------------
---------------------------------------------------------|----------------------
---------------------------------------------------------|----------------------
this is at the end of the solo (palm mute) sorry its out of order i screwed up i
---------------------------12-9-7-10-8-7----------------------------------------
---18-18-18-13-13-13------------------------------------------------------------
--------------------------------------------------------------------------------
--------------------------------------------------------------------------------
--------------------------------------------------------------------------------
--------------------------------------------------------------------------------
		   
AcordesyTabs.com © 2008 Acordes y Tablaturas para guitarra. Tabs and Chords for guitar. Aviso Legal - Contacto
El uso de este sitio está sujeto a la aceptación de los términos y condiciones (37 usuarios online)