tablaturas, partituras y acordes para guitarra
Busca por banda/artista:
 
y/o título de la canción:
A B C D E F G H I J K L M N O P Q R S T U V W X Y Z 0 1 2 3 4 5 6 7 8 9 / Top 100 tabs
Categorías
Usuarios
usuario:
Darse de alta
password:
Artistas más visitados
Publicidad
TOP acordes y tablaturas de System Of A Down


Toxicity 4
de System Of A Down
Puntúa este acorde/tab:      
(0.4/5)
Reportar este acorde/tab
  Añadir a tus favoritos
  Imprimir


 I am pretty sure this is how the song goes.  
Tuning, one step down, and drop D, [C,G,C,F,A,D.
Listen to the song for timing. 

Intro
Slightly palm muted-------------------------------------------------------------
D-------------------------------------------------------------------------------
A-------------------------------------------------------------------------------
F-------------------------------------------------------------------------------
C-----------------7------------7------------7-----------7------------7----------
G--------5-------------5--------------5-----------5----------5------------5-----
C-------------------------------------------------------------------------------
Slightly palm muted-------------------------------------------------------------
D-------------------------------------------------------------------------------
A-------------------------------------------------------------------------------
F-------------------------------------------------------------------------------
C-----------10---------10------------10------------10-------------------7------
G-----8-----------8-----------8--------------8---------------------5-----------
C-------------------------------------------------------------------------------
Slightly palm muted-------------------------------------------------|
D-------------------------------------------------------------------------------
A-------------------------------------------------------------------------------
F-------------------------------------------------------------------------------
C-----/----------10---------12--------12--10-------10--8-------8----------------
G-----/-----8----------8-----------8-------------8------------8-----------------
C-------------------------------------------------------------------------------



Chorus part 1.
                 p.m.-------------|      
D-------------------------------------------------------------------------------
A-------------------------------------------------------------------------------
F-------------------------------------------------------------------------------
C---0--------------------------------------------8------8--8--8---------7-------
G---0----------3--2---0---2----0--------------8------8--8--8---------7----------
C---0----------3--2---0---2----0--------------8------8--8--8---------7----------

Chorus part 2
p.m.----------------------------------------------------------------------------
D-------------------------------------------------------------------------------
A-------------------------------------------------------------------------------
F-------------------------------------------------------------------------------
C-------------------------------------------------------------------------------
G------3--2--0--2--0--0---3--2--0--2--0--0--3--2--0--2--0--0--3--2--0--2--0--0--
C------3--2--0--2--0--0---3--2--0--2--0--0--3--2--0--2--0--0--3--2--0--2--0--0--

D-------------------------------------------------------------------------------
A-------------------------------------------------------------------------------
F-------------------------------------------------------------------------------
C--7--7--7------------repeat--chorus--part--1------one time.--------------------
G--7--7--7----------------------------------------------------------------------
C--7--7--7----------------------------------------------------------------------



verse
D-------------------------------------------------------------------------------
A-------------10------------10-----------10------------10-----------10----------
F-----7---------------7-------------7-------------7-------------7-------------7-
C-------------------------------------------------------------------------------
G-------------------------------------------------------------------------------
C-------------------------------------------------------------------------------

D-------------------------------------------------------------------------------
A------------------13-------------------13----------------13---------------13- -
F--------10------------------10-----------------10---------------10-------------
C-------------------------------------------------------------------------------
G-------------------------------------------------------------------------------
C-------------------------------------------------------------------------------

D-------------------------------------------------------------------------------
A-----------11--10--------------10--/----------------13------------------15-----
F----7---------------------7----------/-------10---------------10---------------
C-------------------------------------------------------------------------------
G-------------------------------------------------------------------------------
C-------------------------------------------------------------------------------

D-------------------------------------------------------------------------------
A------13---11-------------13---------------------------------------------------
F-------------------10----------------------------------------------------------
C-------------------------------------------------------------------------------
G-------------------------------------------------------------------------------
C-------------------------------------------------------------------------------

Bridge 
                                   Bend the 7 a half step   
D-------------------------------------------------------------------------------
A-------------------------------------------------------------------------------
F-------------------------------------------------------------------------------
C-------------------------------------------------------------------------------
G------5--5-5--5---8---5-5----7-------------------------------------------------
C-------------------------------------------------------------------------------

Pre outro

D-------------------------------------------------------------------------------
A-------------------------------------------------------------------------------
F-------------------------------------------------------------------------------
C---- -0--0--0----------0--0---------------repeat  a  lot-----------------------
G-----0--0--0---3--2---0--0-----------------------------------------------------
C-----0--0--0—3-h2--0--0--------------------------------------------------------
Outro
                                Bend the 2 a half step        
D-------------------------------------------------------------------------------
A-------------------------------------------------------------------------------
F-------------------------------------------------------------------------------
C-------------------------------------------------------------------------------
G-----0-------------------------------------------------------------------------
C-----0---0--0--0---3--0--0---2-------------------------------------------------



Questions or comments poo_poo_head210@hotmail.com


Order:
Intro
Chorus
Verse 
Chorus
Verse
Chorus
Bridge
Pre outro 
Outro
Chorus 
Outro

That’s it
		   
AcordesyTabs.com © 2008 Acordes y Tablaturas para guitarra. Tabs and Chords for guitar. Aviso Legal - Contacto
El uso de este sitio está sujeto a la aceptación de los términos y condiciones (27 usuarios online)