tablaturas, partituras y acordes para guitarra
Busca por banda/artista:
 
y/o título de la canción:
A B C D E F G H I J K L M N O P Q R S T U V W X Y Z 0 1 2 3 4 5 6 7 8 9 / Top 100 tabs
Categorías
Usuarios
usuario:
Darse de alta
password:
Artistas más visitados
Publicidad
TOP acordes y tablaturas de System Of A Down


Were On Drugs
de System Of A Down
Puntúa este acorde/tab:      
(0.2/5)
Reportar este acorde/tab
  Añadir a tus favoritos
  Imprimir
Artist: System of a Down
Song: We're on Drugs
Tabbed by: Chris whoo@cannabismail.com

Riff 1:
D|---------------------------------|
A|---------------------------------|
F|-5---5---7-------7-------7-------|
C|-5---5---7-------7-------7-------|
G|-3---3---5-------5-------5-------|
C|---------------------------------|x4

Riff 1:
D|---------------------------------|
A|---------------------------------|
F|-5---5---7-------7-------7-------|
C|-5---5---7-------7-------7-------|
G|-3---3---5-------5-------5-------|
C|---------------------------------|x2

  "We're on drugs..."

Riff 2:
D|-----------------------------------------------------------------|
A|-----------------------------------------------------------------|
F|-7-------7-------7-------5-------5-------7-------7-------7-------|
C|-7-------7-------7-------5-------5-------7-------7-------7-------|
G|-5-------5-------5-------3-------3-------5-------5-------5-------|
C|-----------------------------------------------------------------|x1

           "We're          on              drugs..."


Riff 1:
D|---------------------------------|
A|---------------------------------|
F|-5---5---7-------7-------7-------|
C|-5---5---7-------7-------7-------|
G|-3---3---5-------5-------5-------|
C|---------------------------------|x2

1:"We're on drugs..."
2:"We're on drugs          baby!"

Riff 2:
D|-----------------------------------------------------------------|
A|-----------------------------------------------------------------|
F|-7-------7-------7-------5-------5-------7-------7-------7-------|
C|-7-------7-------7-------5-------5-------7-------7-------7-------|
G|-5-------5-------5-------3-------3-------5-------5-------5-------|
C|-----------------------------------------------------------------|x2

1:         "We're          on              drugs..."
2:         "Do             you     like    drugs?"

Riff 2:
D|-----------------------------------------------------------------|
A|-----------------------------------------------------------------|
F|-7-------7-------7-------5-------5-------7-----------------------|
C|-7-------7-------7-------5-------5-------7-----------------------|
G|-5-------5-------5-------3-------3-------5-----------------------|
C|-----------------------------------------------------------------|x1

           "Holland!       Holland!            drugs!"

There you have it: An emotional masterpiece.
		   
AcordesyTabs.com © 2008 Acordes y Tablaturas para guitarra. Tabs and Chords for guitar. Aviso Legal - Contacto
El uso de este sitio está sujeto a la aceptación de los términos y condiciones (28 usuarios online)