tablaturas, partituras y acordes para guitarra
Busca por banda/artista:
 
y/o título de la canción:
A B C D E F G H I J K L M N O P Q R S T U V W X Y Z 0 1 2 3 4 5 6 7 8 9 / Top 100 tabs
Categorías
Usuarios
usuario:
Darse de alta
password:
Artistas más visitados
Publicidad
TOP acordes y tablaturas de Tatu


Estás en: Inicio > Letra T > Acordes y tablaturas de Tatu > Malchik Gay
Malchik Gay
de Tatu
Puntúa este acorde/tab:      
(0.7/5)
Reportar este acorde/tab
  Añadir a tus favoritos
  Imprimir
This song is really catchy

e-------------------------------------------------------------------------------
B-------------------------------------------------------------------------------
G-------------------------------------------------------------------------------
D-------------------------------------------------------------------------------
A---------------0-0--0------3-3-----------------0-0--0------3-3----------------0
E-1-1--1-0-0--0--------3-3-3-----3-1-1--1-0-0--0-------3-3-3----3-1-1--1-0-0--0-


Verse
e-------------------------------------------------------------------------------
B-------------------------------------------------------------------------------
G---------------5-5-5-5-5-5-5----------------------------------------------5-5-5
D-7-7-7-7-7-7-7-5-5-5-5-5-5-5-3-3-3-3-3-3-3-3-3-3-3-3-3-2-2--7-7-7-7-7-7-7-5-5-5
A-7-7-7-7-7-7-7-3-3-3-3-3-3-3-3-3-3-3-3-3-3-3-3-3-3-3-3-2-2--7-7-7-7-7-7-7-3-3-3
E-5-5-5-5-5-5-5---------------1-1-1-1-1-1-1-1-1-1-1-1-1-0-0--5-5-5-5-5-5-5------

e-------------------------------------------------------------------------0--|
B-------------------------------------------------------------------------0--|
G-----------------------------3-3-3-3-3-3-3-3-3-3-3-3-3-3-5-5-5-5-5-5-5-5-1--|
D-3-3-3-3-3-3-3-5-5-5-5-5-5-5-3-3-3-3-3-3-3-3-3-3-3-3-3-3-5-5-5-5-5-5-5-5-2--|
A-3-3-3-3-3-3-3-5-5-5-5-5-5-5-1-1-1-1-1-1-1-1-1-1-1-1-1-1-3-3-3-3-3-3-3-3-2--|
E-1-1-1-1-1-1-1-3-3-3-3-3-3-3---------------------------------------------0--|

chorus
e-------------------------------------------------------------------------------
B-------------------------------------------------------------------------------
G-----------------------------5-5--5-5-5--5---------------7-7--7-7-7--7---------
D-3-3--3-3-3--3-5-5--5-5-5--5-5-5--5-5-5--5-7-7--7-7-7--7-7-7--7-7-7--7-5-5--5-5
A-3-3--3-3-3--3-5-5--5-5-5--5-3-3--3-3-3--3-7-7--7-7-7--7-5-5--5-5-5--5-5-5--5-5
E-1-1--1-1-1--1-3-3--3-3-3--3---------------5-5--5-5-5--5---------------3-3--3-3

e------------------------------|
B------------------------------|
G-5-5--5-5-5--5----------------|
D-5-5--5-5-5--5-7-7--7-7-7--7--|
A-3-3--3-3-3--3-7-7--7-7-7--7--|
E---------------5-5--5-5-5--5--|

(in between riff)
e-----------------------------|
B-----------------------------|
G-----------------------------|
D-----------------------------|
A---------------0-0--0--------|
E-1-1--1-0-0--0--------3-3-3--|

Verse x 1

Chorus x 1

Solo
e------------------------------------------------------------------|
B------------------------------------------------------------------|
G-------------------------------------------------5-5-5-5-5-5-5-5--|
D-3-3-3-3-3-3-3-3-5-5-5-5-5-5-5-5-7-7-7-7-7-7-7-7-5-5-5-5-5-5-5-5--| x 2
A-3-3-3-3-3-3-3-3-5-5-5-5-5-5-5-5-7-7-7-7-7-7-7-7-3-3-3-3-3-3-3-3--|
E-1-1-1-1-1-1-1-1-3-3-3-3-3-3-3-3-5-5-5-5-5-5-5-5------------------|

chorus x 1

(in between riff)

chorus x 2

e--------------------------------------------------------|
B--------------------------------------------------------|
G--------------------------------------------------------|
D--------------------------------------------------------|
A--------------0-0--0------3-3----------------0-0--0-----|
E-1-1--1-0-0--0-------3-3-3----3-1-1--1-0-0--0-------3-3-|


Tabed by someone stolen by *Cetrie* :p
		   
AcordesyTabs.com © 2008 Acordes y Tablaturas para guitarra. Tabs and Chords for guitar. Aviso Legal - Contacto
El uso de este sitio está sujeto a la aceptación de los términos y condiciones (24 usuarios online)