tablaturas, partituras y acordes para guitarra
Busca por banda/artista:
 
y/o título de la canción:
A B C D E F G H I J K L M N O P Q R S T U V W X Y Z 0 1 2 3 4 5 6 7 8 9 / Top 100 tabs
Categorías
Usuarios
usuario:
Darse de alta
password:
Artistas más visitados
Publicidad
TOP acordes y tablaturas de The White Stripes


Estás en: Inicio > Letra T > Acordes y tablaturas de The White Stripes > Seven Nation Army
Seven Nation Army
de The White Stripes
Puntúa este acorde/tab:      
(1/5)
Reportar este acorde/tab
  Añadir a tus favoritos
  Imprimir
Hey Guys, First tab, album not out yet, but the band can really rock it.
New song from un-realeased album Elephant.

LOW INTRO AND REPEATED THROUGHOUT THE SONG
e|-----------------------------------------------|
B|-----------------------------------------------|
G|-----------------------------------------------|repeat until song picks up
D|-----------------------------------------------|
A|-----------------------------------------------|
E|------7----7----10----7----5----3----2---------|

pre chorus (right before hard part)
e|---------------------------------------------------------------------------|
B|---------------------------------------------------------------------------|
G|---------------------------------------------------------------------------|
D|--------5----------7-------------------------------------------------------|
A|--------5---(x8)---7--(x8)-------------------------------------------------|
E|--------3----------5-------------------------------------------------------|

Chorus
e|---------------------------------------------------------------------------|
B|---------------------------------------------------------------------------|
G|--------9--9--12--9--7--5--4-----------------------------------------------|
D|--------9--9--12--9--7--5--4-----(x1)--------------------------------------|
A|--------7--7--10--7--5--3--2-----------------------------------------------|
E|---------------------------------------------------------------------------|
THEN
e|---------------------------------------------------------------------------|
B|---------------------------------------------------------------------------|
G|--------9--9--12--9--7--5--3--5--4-----------------------------------------|
D|--------9--9--12--9--7--5--3--5--4-(x1)------------------------------------|
A|--------7--7--10--7--5--3--5--3--2-----------------------------------------|
E|---------------------------------------------------------------------------|
(i think repeated twice depending on the part of the song)

This song is pretty easy and you can really rock to it.  Hope you all enjoy.!!
MILHOUSE
		   
AcordesyTabs.com © 2008 Acordes y Tablaturas para guitarra. Tabs and Chords for guitar. Aviso Legal - Contacto
El uso de este sitio está sujeto a la aceptación de los términos y condiciones (19 usuarios online)