tablaturas, partituras y acordes para guitarra
Busca por banda/artista:
 
y/o título de la canción:
A B C D E F G H I J K L M N O P Q R S T U V W X Y Z 0 1 2 3 4 5 6 7 8 9 / Top 100 tabs
Categorías
Usuarios
usuario:
Darse de alta
password:
Artistas más visitados
Publicidad
TOP acordes y tablaturas de Tronic


Estás en: Inicio > Letra T > Acordes y tablaturas de Tronic > Missis Guiñi
Missis Guiñi
de Tronic
Puntúa este acorde/tab:      
(0.7/5)
Reportar este acorde/tab
  Añadir a tus favoritos
  Imprimir
Missis GUiñi

 kada dia no es igual...
|------------|
|------------|
|-7----------|(x2)
|-7--7--9--5-|
|-5--7--9--5-|
|----5--7--3-|

 Frutos para el hogar...
|------------------------|
|------------------------|
|7-----------------------|(x2)
|7(x8)-7-----9-----5-----|
|5-----7(x8)-9(x8)-5(x8)-|
|------5-----7-----3-----|

koro: oiga missis wiñi porke roba ud.? ...
|----------------------------|
|----------------------------|
|7---------------------------|
|X(X16)-7------9------5------|
|5------7(x16)-9(x16)-5(x16)-|
|-------5------7------3------|

|----------------------------|
|----------------------------|
|7---------------------------|
|7(x16)-7------9------5------|
|5------7(x16)-9(x16)-5(x16)-|
|-------5------7------3------|

verso: Ke loka la situación...
|------------------------|
|------------------------|
|7-----------------------|(x2)
|7(x8)-7-----9-----5-----|
|5-----7(x8)-9(x8)-5(x8)-|
|------5-----7-----3-----|

Al super le roba montón...
( MUTEAR )
|------------------------|
|------------------------|
|7-----------------------|
|7(x8)-7-----9-----5-----|
|5-----7(x8)-9(x8)-5(x8)-|
|------5-----7-----3-----|

Esto de la jubilación...
(  MUTEAR   )
|-----------||--------|
|-----------||--------|
|7----------||--------|
|7(x8)-7----||-9~--5~-|
|5-----7(x8)||-9~--5~-|
|------5----||-7~--3~-|


Koro: oiga missis wiñi porke roba ud?
|----------------------------|
|----------------------------|
|7---------------------------|(x2)
|7(x16)-7------9------5------|
|5------7(x16)-9(x16)-5(x16)-|
|-------5------7------3------|


..30 mil al mes...
|---------------------------|
|---------------------------|
|7--------------------------|
|7(x16)-7-----9-----5-------|
|5-----7(x16)-9(x16)-5(x16)-|
|------5-----7-----3--------|

solo:
|------------------------------------------------------------------|
|------------------------------------------------------------------|
|------------------------------------------------------------------|
|10~--12-13------13-12------------10~-12--17(x8)-15(x8)-13(x8)-12~-|
|-----------10~--------10~--12-13----------------------------------|
|------------------------------------------------------------------|


Koro: oiga missis wiñi porke roba ud?
|----------------------------|
|----------------------------|
|7---------------------------|(x3)
|7(x16)-7------9------5------|
|5------7(x16)-9(x16)-5(x16)-|
|-------5------7------3------|


PA' las viejas ke roban!!! jeje....
(( tengan necesidad ,nah,nah , nada justifika el robar!!!))
		   
AcordesyTabs.com © 2008 Acordes y Tablaturas para guitarra. Tabs and Chords for guitar. Aviso Legal - Contacto
El uso de este sitio está sujeto a la aceptación de los términos y condiciones (18 usuarios online)