tablaturas, partituras y acordes para guitarra
Busca por banda/artista:
 
y/o título de la canción:
A B C D E F G H I J K L M N O P Q R S T U V W X Y Z 0 1 2 3 4 5 6 7 8 9 / Top 100 tabs
Categorías
Usuarios
usuario:
Darse de alta
password:
Artistas más visitados
Publicidad
TOP acordes y tablaturas de Beatles


Estás en: Inicio > Letra B > Acordes y tablaturas de Beatles > Lucy In The Sky With Diamonds
Lucy In The Sky With Diamonds
de Beatles
Puntúa este acorde/tab:      
(0.3/5)
Reportar este acorde/tab
  Añadir a tus favoritos
  Imprimir



                                   Lucy In the Sky With Diamonds
                                                       by 
                                                 The Beatles
 Intro:
|---------------12-----------12----------------------------12------------10/9---
|---------10-------------------------10--------------10-------------------------
|---9-------------------12----------------------11------------------10----------
|-------------------------------------------------------------------------------
|-------------------------------------------------------------------------------
|-------------------------------------------------------------------------------

  A                           A7/G                         D/F#                 
|---------------12----------------12---------------------------------12---------
|--------------------------------------------10-----------------10--------------
|--------14---------------12-------------------------11----------------------9--
|-14----------------------x---------------------------x-----------------------x-
|-12----------------------10--------------------------9-----------------------8-
|-------------------------------------------------------------------------------
 
 A/E                               A7/G                              D/F#       
|--------------------12--------------------12-----------------------------------
|------------------------------------------------------10-----------------10----
|-----------14------------------12-----------------------------11---------------
|-14----------------------------x-------------------------------x---------------
|-x-----------------------------10------------------------------9---------------
|-12----------------------------------------------------------------------------

                                                 A/E                            
|---10-----------10--------------------------------------------12---------------
|-------------------------------------------------------------------------------
|-----------------------------------------------------14---------------------12-
|-----------------------------------------14---------------------------------x--
|-----------------------------------------x----------------------------------10-
|---8-------------8------------10-------12--------------------------------------


|---------------12-----------------
|----10----------------------------
|-----------------------------------
|-----------------------------------
|-----------------------------------
|-----------------------------------

 Dm/F                                  A/E                             A7/G     
|--------------10/9--------------------------------------12-------------------12
|------------------------10-----------------------------------------------------
|-9---------------------------------------------14---------------12-------------
|-x-----------------------------------14-------------------------x--------------
|-8-----------------------------------x--------------------------10-------------
|-------------------------------------12----------------------------------------

                                    Dm                                          
|-12------9--------12-------10---------13---------10---------13------13------13-
|-10------10------10-------10----------10--------10---------10------10------10--
|-11-------------------------10---------------------------------10------10------
|-0---------------------------0----------------------------------0--------0-----
|-------------------------------------------------------------------------------
|-------------------------------------------------------------------------------

                                                C9                              
|-------------------------------------------------------------------------------
|----/-------/-------/----------------------------------------------------------
|----|-------|-------|-----------------------%-------------------------------%--
|-------------------------------------------------------------------------------
|-------------------------------------------------------------------------------
|-------------------------------------------------------------------------------

                                    Bb
|-------------------------------------------------------------------------------
|----/--------/-------/---------------------------------------------------------
|----|--------|--------|-----------------------------------------3--------------
|------------------------------------------0-----------3---------------3--------
|-------------------------------1-----------------------------------------------
|-------------------------------------------------------------------------------

And the rest of the song Is just strumming:C9,G,D,G,C,D,G,C,D,G,C,D,D*,G,C,D*,G,

Coda:
|-9---------------12------------9--------12----------9----------12--------------
|-10--------------10-----------10-------10---------10---------10----------------
|-11--------------------------------------11------------------------------------
|-0-----------------------------------------------------------------------------
|-------------------------------------------------------------------------------
|-------------------------------------------------------------------------------

/
|...Strumming

Lyrics:
   Picture your self in a boat on the river with
 Tangering trees and marmalade skies.
 
    Somebody calls you,you answer quite slowly
 A girl with kaleidoscope eyes.
  
  Cellophane flowers of yellow and green
 Towering over your head.

   Look for the girl with the sun in her eyes 
 And she`s gone.
  
   Lucy in the sky with diamonds,
 Lucy in the sky with diamonds,
 Lucy in the sky with diamonds.

   Folow her down to a bridge by a fountain
 Where rocking horse people eat marshmalow pies.

   Every one smiles as you drift past the flowers
 That grow so incredibli high.

   News paper taxis apear on the shore
 Waiting to take you away.

   Climb in the back with your head in the clouds 
 And your gone.
   
		   
AcordesyTabs.com © 2008 Acordes y Tablaturas para guitarra. Tabs and Chords for guitar. Aviso Legal - Contacto
El uso de este sitio está sujeto a la aceptación de los términos y condiciones (44 usuarios online)