tablaturas, partituras y acordes para guitarra
Busca por banda/artista:
 
y/o título de la canción:
A B C D E F G H I J K L M N O P Q R S T U V W X Y Z 0 1 2 3 4 5 6 7 8 9 / Top 100 tabs
Categorías
Usuarios
usuario:
Darse de alta
password:
Artistas más visitados
Publicidad
TOP acordes y tablaturas de Aerosmith


Estás en: Inicio > Letra A > Acordes y tablaturas de Aerosmith > Avant Garden Intro
Avant Garden Intro
de Aerosmith
Puntúa este acorde/tab:      
(0.9/5)
Reportar este acorde/tab
  Añadir a tus favoritos
  Imprimir
ARTIST:AEROSMITH
TITLE:AVANT GARDEN - THE INTRO
TRANSCRIBED BY PAUL MCCARTHY

E-----------------------------------------
A---------------------------------------
D------------------------------------------
G------------------------------------------
B-----5>7--7--7<5-3----------5>7--7--7<5--3------
e-----3----3--3--------------3----3--3------------
(>BEND 7--7--7<5--3---------------------------------------
e-3----3--3---------------------------------

E------------------------------------------------------------
A------------------------------------------------------------
D-----------------------------------------------------------
G-------------5--3--5-5/7--5------------------------------------
B-5>7<5--3-----------------------------------
e-3-3------------------------------------------------------

(/=SLIDE)

ANY CORRECTIONS/ADDITIONS EITHER POST ON HERE OR SEND 
TO KORINA62@AOL.COM. CHEERS
		   
AcordesyTabs.com © 2008 Acordes y Tablaturas para guitarra. Tabs and Chords for guitar. Aviso Legal - Contacto
El uso de este sitio está sujeto a la aceptación de los términos y condiciones (26 usuarios online)