tablaturas, partituras y acordes para guitarra
Busca por banda/artista:
 
y/o título de la canción:
A B C D E F G H I J K L M N O P Q R S T U V W X Y Z 0 1 2 3 4 5 6 7 8 9 / Top 100 tabs
Categorías
Usuarios
usuario:
Darse de alta
password:
Artistas más visitados
Publicidad
TOP acordes y tablaturas de Wheatus


Estás en: Inicio > Letra W > Acordes y tablaturas de Wheatus > Love Is A Mutt From Hell
Love Is A Mutt From Hell
de Wheatus
Puntúa este acorde/tab:      
(1.1/5)
Reportar este acorde/tab
  Añadir a tus favoritos
  Imprimir
LOVE IS A MUTT FROM HELL


Verses:

Play clean and very bassy.

e |-----------------------------------|
B |-----------------------------------|
G |-----------------------------------|
D |-7-7-7-----11-11-9-9-9-9-----------|
A |-7-7-7-----11-11-9-9-9-9-----------|
E |-5-5-5-----9--9--7-7-7-7-----------|

Bridges:

Clean, but less bass and more treble.

e |-0-0---4---0-------2-2---4---0-------|
B |-0-0---5---0-------3-3-3-5---0-------|
G |-2-2-2-6---1-------2-2-2-6---1-------|
D |-2-2-2-6---2-------0-0-0-6---2-------|
A |-0-0-0-4---2-------------4---2-------|
E |-----------0-----------------0-------|

Chorus:

Use distortion, this is kind of hard at first as it's fast power chord changes.

e |------------------------------------|
B |------------------------------------|
G |------------------------------------|
D |-7-9-11-12---11-9-7---6-7-9---7-6---|
A |-7-9-11-12---11-9-7---6-7-9---7-6---|
E |-5-7-9--10---9--7-5---4-5-7---5-4---|

After the 2nd chorus:

Play clean and bassy, bending the A string a lot.

e |------------------------------------|
B |------------------------------------|
G |------------------------------------|
D |-7-7-7-----11-11-9-9-9-9------------|
A |-7-7-7-----11-11-9-9-9-9---7b-------|
E |-5-5-5-----9--9--7-7-7-7--------0---|

e |-----------------------------------|
B |-----------------------------------|
G |-----------------------------------|
D |-7-7-7-----11-11-9-9-9-9-----------|
A |-7-7-7-----11-11-9-9-9-9-----------|
E |-5-5-5-----9--9--7-7-7-7-----------|

Middle section:

e |-----------------------------------------------------------------|
B |-----------------------------------------------------------------|
G |-----------------------------------------------------------------|
D |-7-7-7-----11-11-9-9-9-9---13-13-11-11-11-11---14-14-13-13-13-13-|
A |-7-7-7-----11-11-9-9-9-9---13-13-11-11-11-11---14-14-13-13-13-13-|
E |-5-5-5-----9--9--7-7-7-7---11-11-9--9--9--9----12-12-11-11-11-11-|

e |-----------------------------------------------------------------------------
B |-----------------------------------------------------------------------------
G |-----------------------------------------------------------------------------
D |-7-7-7-----11-11-9-9-9-9---13-13-11-11-11-11---14-14-13-13-13-13-13-13-13-13-
A |-7-7-7-----11-11-9-9-9-9---13-13-11-11-11-11---14-14-13-13-13-13-13-13-13-13-
E |-5-5-5-----9--9--7-7-7-7---11-11-9--9--9--9----12-12-11-11-11-11-11-11-11-11-

End:

e |----|
B |----|
G |----|
D |-7/-|
A |-7/-|
E |-5/-|





		   
AcordesyTabs.com © 2008 Acordes y Tablaturas para guitarra. Tabs and Chords for guitar. Aviso Legal - Contacto
El uso de este sitio está sujeto a la aceptación de los términos y condiciones (22 usuarios online)